Patern Against User Bass Tab - At the Drive-In




1. Intro (0:01)
G|--------------------------------------------|
D|--------------------------------------------| X2
A|---------222222/9999-0/9/101010/9/10/9/10/9-|
E|55555555------------------------------------|


2. Verse 1 (0:13)
   (the proposition....)
G|-------------------|-----|
D|--------------3355-|5530-| X8
A|55557553-33333-----|-----| 
E|-------------------|-----|


3. Chorus
   (pattern against user....) 
G|--------------------------------------------|--------------------------|
D|--------------------------------------------|--------------------------|
A|---------222222/9999-0/9/101010/9/10/9/10/9-|--------222220------------|
E|55555555------------------------------------|-5555555------22233323232-|                    


4. Verse 2
   (this intuition....)
G|----------------|
D|----------------| X8
A|55557553-3333355|
E|----------------|

5. Chorus
   (pattern against user....)
G|------------------------------------------------------------------|
D|------------------------------------------------------------------|
A|--------2222222--9999/10101010------------------------------------|
E|55555555------------------------55555555777777772222222233333333--|

G|------------------------------------------------------------------|
D|------------------------------------------------------------------|
A|--------222222---9999/10101010--------------------9999/10101010---|
E|55555555-------------------------5555555577777777-----------------|

6. Bridge
   (and if this clock....)
G|-------------------------------|
D|-----77777-9999---9997777------| X7
A|--999----------555-------777999|
E|-------------------------------|

7. Chorus variation for end
   (pattern against user....)
G|------------------------------------------------------------------|
D|------------------------------------------------------------------|
A|--------22222222-9999/101010--------------------------------------|
E|55555555-------------------------55555555777777772222222233333333-|

G|------------------------------------------------------------------|
D|------------------------------------------------------------------|
A|--------------------------------------------------9999/10101010---|
E|55555555777777772222222233333333-5555555577777777-----------------|

G|---------------------------------------------------------------------|
D|---------------------------------------------------------------------|
A|--------22222222-9999/10101010-------------------9-9-9-9-10-10-10-10-|
E|55555555-------------------------5-5-5-5-7-7-7-7---------------------|

G|--------------------------------------|
D|--------------------------------------|
A|---------2-2-2-2/9-9-9-9/10-10-10-10--|
ĂŽnscrie-te la newsletter


Join the ranks ! LIKE us on Facebook