Pickpocket Bass Tab - At the Drive-In






Pickpocket by At The Drive-In for the bass guitar.

Tabbed by Greg Mitchell(If you want any other bass tabs for ATDI songs, message me on 
at xxvrufiovxx.)

Standard Tuning

Come in right after the drum roll with:

Verse:
G|--------------------|
D|--------------------|
A|------4-44----------| x8
E|-5-55------4-44-2h4-|

Chorus:
G|------------------|
D|------------------|
A|-2-22-2h4-0-00-00-| x4
E|------------------|

Pre-verse(Of this alabaster cold...):
G|----------------------|
D|------3-33-------3-33-|
A|----------------------|
E|-3-33------3-33-------|
^That part is not completely correct, just listen to what he does and mess around with G 
and what not.

Play Verse x6
Play Chorus x4
Play Pre-verse x2

Break(Ingrown!  Ingrown!!...):
G|-----------------------|
D|-----------------------|
A|-----------------------| x4
E|-3-2h3-2h3-2h3-2h3-2-3-|

Play Verse x4
Play Break x8
Play Chorus x8
Play Pre-verse until the end.






Like us on Facebook