Quarantined (ver2) Bass Tab - At the Drive-In






-----------------------------------------------------------------------------
                      QUARANTINED - AT THE DRIVE IN
-----------------------------------------------------------------------------

tabbed by: stellar legs
e-mail: uncle_stellar@hotmail.com
tuning: standard

This is just a real fun, funky bass line, and easy to play. Very basic.
Once you develop a groove you won't stop.

Intro
G-------------------------------------------------------------------|
D--------------5-7-5------------------------------------------------|
A---5-6-7---------------------------5-6-7---------------------------|
E----------0~----------5-6-7--0------------0~---3-5-3----0--7-5-7---|

G-------------------------------------------------------------------|
D--------------5-7-5------------------------------------------------|
A---7-5-7---------------------------5-6-7---------------------------|
E----------0~----------5-6-7--0------------0~---3-5-3----0--7-5-7---|

Verse/Chorus
G---------------------------------------------------------------|
D---------------------------------------------------------------|
A---------------------------------------------------------------|
E--0-0-0-0-0-0---0--12-12--10-10--12-12----5--5-5-5---8--8-8-8--|

That's basically it.

Fin.

ĂŽnscrie-te la newsletter


Like us on Facebook