Quarantined (ver3) Bass Tab - At the Drive-In




-----------------------------------------------------------------
        Quarantined - At The Drive-in
-----------------------------------------------------------------

Tabbed By : moldbuamyri
e-mail: moldbuamyri@hotmail.com
Tuning: Standard

Awesome song and easy to play once you get the hang of it ^^


Intro

G|-----------------------------------------------------|
D|----------5h7p5--------------------------------------|
A|--5-6-7------------------5-6-7-----------------------|
E|--------0~------0-5-6-7--------0--3-0-3-3-0-7-5-7----|

Verse

G|-------------------------------------------|
D|-------------------------------------------|
A|---------7775777-0-0-000-3333333-----------|
E|-0-0-000-----------------------------------|

Chorus

G|-------------------------------------------|
D|-------------5555----5555------------------|
A|-----------------5555-----33332333---------|
E|--000000-0000------------------------------|

Solo

G|-----------12------------------------------------|
D|---------9---------------------------------------|
A|----9-10-------------9--10-9-7-------7-----------|
E|-12-----------7-9-10-----------5-7-8---0-3-5-----|

In this order:

Intro x9
Verse x5
Chorus x4
Intro x4
Verse x5
Chorus x4
Solo x5
Verse x4


-------------------
| / slide up
|  slide down
| h hammer-on
| p pull-off
| ~ vibrato
| + harmonic
| x Mute note 
 
Have Fun!!
ĂŽnscrie-te la newsletter


Join the ranks ! LIKE us on Facebook