Transatlantic Foe Bass Tab - At the Drive-In






Tuning: EADG

intro   [0:16]
-------------------|
-------------------| 4x
-------------------|
0-/-7------8800----|

pre-verse    [0:26]
----------------|----------------|
2-------------/-|----------------|
----------------|----------------|
----------------|4-----------2-4-|

----------------|----------------|
----------------|----------------|
----------------|----------------|
5---------5--7--|9--9--9--7--5-5-|  once

verse       [right after preverse]
-------4--------|----------------|
2--2-2----2--2--|----------------|
----------------|----------------|
----------------|4--4-4-4----2-4-|

----------------|----------------|
----------------|----------------|
----------------|----------------|
5--5-5-5--5--7--|9--9--9--7--5-5-|  three times.
(on the third time, leave out the forth bar.)

prechorus   [0:59]
----------------|----------------|
-.-------.------|-.-------.------|
77-7-.--55-5-.--|77-7-.--55-5-.--|
----88-8----66-6|----88-8----66-6|

----------------|----------------|
---.-----.------|----------------|
77-7-.--55-5-.--|----------------|
----88-8----66-6|7-7-777-7-775-55|  twice

chorus      [1:16]
----------------|----------------|
----------------|---------.------|
-------2-22-2222|4-4-444455-5-.--|
0-0-000---------|------------66-6|  6 times

intro 4 times   [1:43]

preverse once   [1:52]

verse 3 (full) times   [right after preverse]

intro 8 times   [2:27]

chorus variation   [2:45]
----------------|----------------|
----------------|----------------|
----------------|----------------|
0-0-0000-00-0000|7-7-7777-77-7777|

----------------|----------------|
----------------|-.-------.------|
----------------|77-7-.--55-5-.--|
9-9-9999-99-9999|----88-8----66-6|

----------------|----------------|
-.-------.------|-.-------.------|
77-7-.--55-5-.--|77-7-.--55-5-.--|
----88-8----66-6|----88-8----66-6|

------------------| (kind of a chorus
------------------|  and prechorus
------------------|  combination)
7-7-777-7-775-55--|  twice

prechorus once (first three bars only)   [3:14]

ending    [3:24]
----------------|------------------|
----------------|------------------|
----------------|------------------|
7---7--5---5--|0~~-----------------|

this is an awesome fast-paced song. cover it. its
easyto play (for bassists, anyway) but it rocks.
i couldn't really hear the intro riff very well,
so whati wrote is my best guess. let me know if
you figure it out for sure. the rhythms and notes
should be right, if my ears work.

. above note = staccato
/ or  = slide up or down
~ = hold for a while






Like us on Facebook