Winter Month Novelty Bass Tab - At the Drive-In






Tuning: E-A-D-G


Verse 1: (x2)
G|--------------------------------|
D|--------------------------------|
A|--------------------------------|
E|--8--8--8-8-8-8-8-8-8-8-8-8-8-8-|

G|---------------------------------------------------------------------|
D|---------------------------------------------------------------------|
A|----------------------------------------------5-7-7-7-7-7-7-7-7-7-7--|
E|-8--8---8-8-8---8-8-8---8-8-8-8-8-8-8-8-8-8-8------------------------|


Pre-Chorus:
G|---------------------------------------------------------------------------|
D|---------------------------------------------------------------------------|
A|--------------------------------------5--5-5-5--5-5-5-5--------------------|
E|--7--7-7-7--7-7-7-7-5--5-5-5--5-5-5-5-------------------0--0-0-0--0-0-0-0--| (x3)

G|------------------------------------------------------------|
D|------------------------------------------------------------|
A|--------------------------------------5--5-5-5--5-5-5-5-----|
E|--7--7-7-7--7-7-7-7-5--5-5-5--5-5-5-5-------------------0---| (x1)


Chorus:
G|---------------------------------------------------------------------------|
D|--------------------------------------------------------5--5-5-5--5-5-5-5--|
A|--5--5-5-5--5-5-5-5--------------------------------------------------------|
E|--------------------7--7-7-7--7-7-7-7-5--5-5-5--5-5-5-5--------------------| (x1)

G|---------------------------------------------------------------------------|
D|---------------------------------------------------------------------------|
A|--5--5-5-5--5-5-5-5--------------------------------------------------------|
E|--------------------7--7-7-7--7-7-7-7-5--5-5-5--5-5-5-5-3--3-3-3--3-3-3-3--| (x2)


Verse 2: (x1)
G|--------------------------------|
D|--------------------------------|
A|--------------------------------|
E|--8--8--8-8-8-8-8-8-8-8-8-8-8-8-|

G|----------------------------------------------------------------------|
D|----------------------------------------------------------------------|
A|-----------------7-7-7-------------------------5-7-7-7-7-7-7-7-7-7-7--|
E|--8--8---8-8-8-----------8-8-8-8-8-8-8-8-8-8-8------------------------|


Pre-Chorus:
G|---------------------------------------------------------------------------|
D|---------------------------------------------------------------------------|
A|--------------------------------------5--5-5-5--5-5-5-5--------------------|
E|--7--7-7-7--7-7-7-7-5--5-5-5--5-5-5-5-------------------0--0-0-0--0-0-0-0--| (x3)

G|------------------------------------------------------------|
D|------------------------------------------------------------|
A|--------------------------------------5--5-5-5--5-5-5-5-----|
E|--7--7-7-7--7-7-7-7-5--5-5-5--5-5-5-5-------------------0---| (x1)


Chorus:
G|---------------------------------------------------------------------------|
D|---------------------------------------------------------------------------|
A|--5--5-5-5--5-5-5-5--------------------------------------------------------|
E|--------------------7--7-7-7--7-7-7-7-5--5-5-5--5-5-5-5-3--3-3-3--3-3-3-3--| (x2)


Interlude:
G|--------------------------------------------------------|
D|--------------------------------------------------------|
A|--------------------5--5-5-5--5-5-5-5-7--7-7-7--7-7-7-7-|
E|--8--8-8-8--8-8-8-8-------------------------------------| (x4)

G|----------------------------------------------|
D|----------------------------------------------|
A|------------------7-7-7-7-7-7-7-7-7-7-7-7-7---|
E|--0-0-0-0-0-0-0-0---------------------------0-|


Chorus:
G|---------------------------------------------------------------------------|
D|---------------------------------------------------------------------------|
A|--5--5-5-5--5-5-5-5--------------------------------------------------------|
E|--------------------7--7-7-7--7-7-7-7-5--5-5-5--5-5-5-5-3--3-3-3--3-3-3-3--| (x4)


Outro:
G|-----------------------------------------------------------------------------|
D|-----------------------------------------------------------------------------|
A|--7--7-7-7-7-7-7-7---7--7-7-7-7-7-7-7---7--7-7-7-7-7-7-7---7--7-7-7-7-7-7-7--|
E|-----------------------------------------------------------------------------|






Like us on Facebook