Blinded By Fear (ver5) Tab - At the Gates






B||-----------|
F#|-----------|
D||-----------|
A||-5-4-------|
E||-3-2--5-4--|
B||------3-2--|

B||-----------------------------------------|
F#|-----------------------------------------|
D||-----------------------------------------|
A||-----------------------------------------|
E||-10------10-9------9-12------9-10--------|
B||----0000------0000------8888------777777-|x4

B||------------------------------------------------------------------|
F#|------------------------------------------------------------------|
D||------------------------------------------------------------------|
A||--------------------------------1------------------------1----2---|
E||-2---2---2---2---------2-----------2---2---2---2---------1----2---|
B||-0-0-0-0-0-0-0-0-0h2h3----0h2h3----0-0-0-0-0-0-0-0-0h2h3----0-----|x2
PM|---x---x---x---x---------------------x---x---x---x----------x-----|

B||-----------------------------------------|
F#|-----------------------------------------|
D||-----------------------------------------|
A||-----------------------------------------|
E||-10------10-9------9-12------9-10--------|
B||----0000------0000------8888------777777-|x2

B||------------------------------------------------------------------|
F#|------------------------------------------------------------------|
D||------------------------------------------------------------------|
A||--------------------------------1------------------------1----2---|
E||-2---2---2---2---------2-----------2---2---2---2---------1----2---|
B||-0-0-0-0-0-0-0-0-0h2h3----0h2h3----0-0-0-0-0-0-0-0-0h2h3----0-----|x2
PM|---x---x---x---x---------------------x---x---x---x----------x-----|

B||-------------------------------------------------------------------------|
F#|-------------------------------------------------------------------------|
D||-------------------------------------------------------------------------|
A||------------------------9---------8-------------------------9------------|
E||-----------------7h10p7----7h10p7--------------------7h10p7----7h10p7-6--|
B||-0-0-0-0-0-0-0-0---------------------0-0-0-0-0-0-0-0---------------------|
PM|-x-x-x-x-x-x-x-x---------------------x-x-x-x-x-x-x-x---------------------|

B||---------------------------------------------------------------------|
F#|---------------------------------------------------------------------|
D||---------------------------------------------------------------------|
A||------------------------9---------8-------------------------9--------|
E||-----------------7h10p7----7h10p7--------------------7h10p7----6--9--|
B||-0-0-0-0-0-0-0-0---------------------0-0-0-0-0-0-0-0-----------------|
PM|-x-x-x-x-x-x-x-x---------------------x-x-x-x-x-x-x-x-----------------|

B||-----------------------------------------|
F#|-----------------------------------------|
D||-----------------------------------------|
A||-----------------------------------------|
E||-10------10-9------9-12------9-10--------|
B||----0000------0000------8888------777777-|x4

B||------------------------------------------------------------------|
F#|------------------------------------------------------------------|
D||------------------------------------------------------------------|
A||--------------------------------1------------------------1----2---|
E||-2---2---2---2---------2-----------2---2---2---2---------1----2---|
B||-0-0-0-0-0-0-0-0-0h2h3----0h2h3----0-0-0-0-0-0-0-0-0h2h3----0-----|x2
PM|---x---x---x---x---------------------x---x---x---x----------x-----|

B||-------------------------------------------------------------------------|
F#|-------------------------------------------------------------------------|
D||-------------------------------------------------------------------------|
A||------------------------9---------8-------------------------9------------|
E||-----------------7h10p7----7h10p7--------------------7h10p7----7h10p7-6--|
B||-0-0-0-0-0-0-0-0---------------------0-0-0-0-0-0-0-0---------------------|
PM|-x-x-x-x-x-x-x-x---------------------x-x-x-x-x-x-x-x---------------------|

B||---------------------------------------------------------------------|
F#|---------------------------------------------------------------------|
D||---------------------------------------------------------------------|
A||------------------------9---------8-------------------------9--------|
E||-----------------7h10p7----7h10p7--------------------7h10p7----6--9--|
B||-0-0-0-0-0-0-0-0---------------------0-0-0-0-0-0-0-0-----------------|
PM|-x-x-x-x-x-x-x-x---------------------x-x-x-x-x-x-x-x-----------------|

B||---------------------------|
F#|---------------------------|
D||---------------------------|
A||-----------------5-4-------|
E||-----------------3-2--5-4--|
B||-0-0-0-0-0-0-0-0------3-2--|
PM|-x-x-x-x-x-x-x-x-----------|

   Guitar I
B||--------------------------------------------|
F#|--------------------------------------------|
D||-------------7---6~----------------5---4~---|
A||-5----7---8--7---6~----3----5---6--5---4~---|
E||-5----7---8--5---4~----3----5---6--3---2~---|
B||-3----5---6------------1----3---4-----------|x2
 ||
 ||Guitar II (Clean)
B||----------------------------------------------------------------------|
F#|----------------------------------------------------------------------|
D||-----3-----3-----------2-----2-----------1-----1-----------0-----0~---|
A||---3-----3-----3~----2-----2-----2~----1-----1-----1~----0-----0------|
E||-5-----5-----5-----5-----5-----5-----3-----3-----3-----3-----3--------|
B||----------------------------------------------------------------------|x2

   Guitar I
B||----------------------------------------------------|
F#|-12~~~~~--13p12-13~~~--1210--12b--r12---128--7~~~-|
D||----------------------------------------------------|
A||----------------------------------------------------|
E||----------------------------------------------------|
B||----------------------------------------------------|
PM|----------------------------------------------------|
 ||
 ||Guitar II
B||-----------------------------------------|
F#|-----------------------------------------|
D||-----------------------------------------|
A||-----------------------------------------|
E||-10------10-9------9-12------9-10--------|
B||----0000------0000------8888------777777-|x2

   Guitar I
B||---------------------------------------------------------------------------------|
F#|-13p12-12p10-10p8-8p7-5---13p12-12p10-10p8-8p7-5---13p12-12p10-10p8-8p7-5--------|
D||----------------------------------------------------------------------------12~--|
A||---------------------------------------------------------------------------------|
E||---------------------------------------------------------------------------------|
B||---------------------------------------------------------------------------------|
 ||
 ||Guitar II
B||------------------------------------------|
F#|------------------------------------------|
D||------------------------------------------|
A||------------------------------------------|
E||-22222222---------------------------------|
B||-0000000088888888777777773333333322222222-|
PM|-xxxxxxxxxxxxxxxxxxxxxxxxxxxxxxxxxxxxxxxx-|

B||-----------------------------------------|
F#|-----------------------------------------|
D||-----------------------------------------|
A||-----------------------------------------|
E||-10------10-9------9-12------9-10--------|
B||----0000------0000------8888------777777-|x4

B||------------------------------------------------------------------|
F#|------------------------------------------------------------------|
D||------------------------------------------------------------------|
A||--------------------------------1------------------------1----2---|
E||-2---2---2---2---------2-----------2---2---2---2---------1----2---|
B||-0-0-0-0-0-0-0-0-0h2h3----0h2h3----0-0-0-0-0-0-0-0-0h2h3----0-----|x2
PM|---x---x---x---x---------------------x---x---x---x----------x-----|

B||-------------------------------------------------------------------------|
F#|-------------------------------------------------------------------------|
D||-------------------------------------------------------------------------|
A||------------------------9---------8-------------------------9------------|
E||-----------------7h10p7----7h10p7--------------------7h10p7----7h10p7-6--|
B||-0-0-0-0-0-0-0-0---------------------0-0-0-0-0-0-0-0---------------------|
PM|-x-x-x-x-x-x-x-x---------------------x-x-x-x-x-x-x-x---------------------|

B||---------------------------------------------------------------------|
F#|---------------------------------------------------------------------|
D||---------------------------------------------------------------------|
A||------------------------9---------8-------------------------9--------|
E||-----------------7h10p7----7h10p7--------------------7h10p7----6--9--|
B||-0-0-0-0-0-0-0-0---------------------0-0-0-0-0-0-0-0-----------------|
PM|-x-x-x-x-x-x-x-x---------------------x-x-x-x-x-x-x-x-----------------|

B||-------------------------------------------------------------------------|
F#|-------------------------------------------------------------------------|
D||-------------------------------------------------------------------------|
A||------------------------9---------8-------------------------9------------|
E||-2-2-2-2-2-2-2-2-7h10p7----7h10p7----2-2-2-2-2-2-2-2-7h10p7----7h10p7-6--|
B||-0-0-0-0-0-0-0-0---------------------0-0-0-0-0-0-0-0---------------------|
PM|-x-x-x-x-x-x-x-x---------------------x-x-x-x-x-x-x-x---------------------|

B||---------------------------------------------------------------|
F#|---------------------------------------------------------------|
D||---------------------------------------------------------------|
A||------------------------9---------8------------------5-4-------|
E||-2-2-2-2-2-2-2-2-7h10p7----7h10p7----2-2-2-2-2-2-2-2-3-2--5-4--|
B||-0-0-0-0-0-0-0-0---------------------0-0-0-0-0-0-0-0------3-2--|
PM|-x-x-x-x-x-x-x-x---------------------x-x-x-x-x-x-x-x-----------|






Like us on Facebook