Tomb Of The Thracians Tab - At The Throne Of Judgment






Song: Tomb of the Thracians
Band: At The Throne Of Judgment
By: Jordan Vargas

ATTOJ site

This is my first tab so tell me what you think. Myspace.com/i_am_poop_man


Luis, learn guitar 2.


PM= *
T=  10


Guitars 1 & 2
--------------------------------|
--------------------------------|
--------------------------------|
--------------------------------|
3->-----------------------------|
3->-----------------------------|


Guitar 1
-----------------------------------------------------|
-----------------------------------------------------|
---------------------------777555777-----------------|     (x4)
---------555777555---------------------555777--------|
888777888---------888777---------------------777-----|
------------------------555---------888--------------|

Guitar 2
-----------------------------------------------------|
-----------------------------------------------------|
-----------------------------------------------------|     (x4)
---------------------------888777888-----------------|
555444555777888777555444---------------777888444-----|
------------------------555---------888--------------|


Guitar 1
-----------------------------------------------------|
-----------------------------------------------------|
-----------------------------------------------------|
-----------------------------------------------------|     (x4)
000-000-0------000------000-000-0---0-0----0-0-0-----|
000-000-0------000------000-000-0---0-0----0-0-0-----|
*** *** *      ***      *** *** *   * *    * * *


Guitar 2
-----------------------------------------------------|
-----------------------------------------------------|
-----------------------------------------------------|     (x4)
---------------------------888777888-----------------|
555444555777888777555444---------------777888444-----|
------------------------555---------888--------------|
*************************************************


Guitar 1
----------------------------------------------------|
----------------------------------------------------|
----------------------------------------------------|
----------------------------------------------------|
0-0---------0-0---------000-000-----000-000---------|
0-0---------0-0---------000-000-----000-000---------|
* *         * *         *** ***     *** ***

Guitar 2
----------------------------------------------------|
----------------------------------------------------|
----------------------------------------------------|
----------------------------------------------------|
----000-000-----000-000---------0-0---------0-0-----|
----000-000-----000-000---------0-0---------0-0-----|
    *** ***     *** ***         * *         * *

Guitar 1
-------------------------------------------------------------------|
-------------------------------------------------------------------|
-------------------------------------------------------------------|
-------------------------------------------------------------------|    (x2)
-------------------------------------------------------------------|
0-0-000-0-0-000-0-0-0-0-000-000-0-0-000-000-0-0-666-666-333-222----|
* * *** * * *** * * * * *** *** * * *** *** * * *** *** *** ***

Guitar 2
-------------------------------------------------------------------|
-------------------------------------------------------------------|
-------------------------------------------------------------------|    (x2)
-------------------------------------------------------------------|
-------------------------------------------------------------------|
0-0-000-0-0-000-0-0-0-0-000-000-0-0-000-000-0-0-999-999-666-555----|
* * *** * * *** * * * * *** *** * * *** *** * * *** *** *** ***

Guitar 1
--------------------------------------------------------------------|
--------------------------------------------------------------------|
--------------------------------------------------------------------|
--------------------------------------------------------------------|   (x2)
--------------------------------------------------------------------|
000-000-0--------000-000-000-000-000-000-0--------666-666-333-222---|
*** *** *        *** *** *** *** *** *** *        *** *** *** ***
Guitar 2
--------------------------------------------------------------------|
--------------------------------------------------------------------|
--------------------------------------------------------------------|
--------------------------------------------------------------------|   (x2)
--------------------------------------------------------------------|
000-000-0--------000-000-000-000-000-000-0--------999-999-666-555---|
*** *** *        *** *** *** *** *** *** *        *** *** *** ***

Guitar 1
----------------------------------------------------------------|
----------------------------------------------------------------|
----------------------------------------------------------------|
----------------------------------------------------------------|
----------------------------------------------------------------|
000-000-0-0-0-0-000-000-000-0-0-000-000-0-0-0-0-666-666-333-222-|
*** *** * * * * *** *** *** * * *** *** * * * * *** *** *** ***

Guitar 2
-----------------------------------------------------------------|
-----------------------------------------------------------------|
-----------------------------------------------------------------|
-----------------------------------------------------------------|
-----------------------------------------------------------------|
000-000-0-------000-000-000-000-000-000-0-------999-999-666-555--|
*** *** *       *** *** *** *** *** *** *       *** *** *** ***


Guitar 1
----------------------------------------------------|
----------------------------------------------------|
---------------------------777555777----------------|    (x3)
---------555777555---------------------555777-------|
888777888---------888777---------------------777----|
------------------------555---------888-------------|

Guitar 2
----------------------------------------------------|
----------------------------------------------------|
----------------------------------------------------|    (X3)
---------------------------888777888----------------|
555444555777888777555444---------------777888444----|
------------------------555---------888-------------|


Guitar 1
------------------------------------------------|
------------------------------------------------|
---------------------------7--5--7--------------|
---------555777555---------------------5--7-----|
888777888---------888777------------------------|
------------------------5-----------8-----------|

Guitar 2
------------------------------------------------|
------------------------------------------------|
------------------------------------------------|
---------------------------8--7--8--------------|
555444555777888777555444---------------7--8-----|
------------------------5-----------8-----------|


Guitar 1
-------------------------------------------------------|
-------------------------------------------------------|
------------------------------7-5-7-----------5--------|    (x4)
------------------5-7---------------------7-8---7------|
------8-7-8-----------8-----------------T--------------|T
0---0-------0-0-0-------5---5-------8-8----------------|

Guitar 2
--------------------------------------------------------|
--------------------------------------------------------|
--------------------------------------------------------|     (x4)
------------------------------8-7-8---------5-7---------|
------5-4-5-------7-8-5-----------------7-8-----8-7-----|
0---0-------0-0-0-------5---5-------8-8-----------------|


Guitar 1
--------------------------------------------------|
--------------------------------------------------|
--------------------------------------------------|
--------------------------------------------------|
0-----------5-----------8-----------7-----T-------|
0-----------5-----------8-----------7-----T-------|


Guitar 2
-------------------------------------------------|
-------------------------------------------------|
-------------------------------------------------|
------------------555------777555----------------|
---888555777---888---777---------888---888---777-|
000---------555---------888---------777---TTT----|


Guitar 1
-------------------------------------------------|
-------------------------------------------------|
---------------------------555-------------------|
---777333555---777888555------888777---777---555-|
-------------------------------------------------|
000---------555---------888---------777---TTT----|


Guitar 2
-------------------------------------------------|
-------------------------------------------------|
-------------------------------------------------|
------------------555------777555----------------|
---888555777---888---777---------888---888---777-|
000---------555---------888---------777---TTT----|


Guitar 1
------------------------------------------------|
------------------------------------------------|
---------------------------555------------------|
---777333555---777888555------888777---7-----5--|
------------------------------------------------|
000---------555---------888---------7-----T-----|


Guitar 2
------------------------------------------------|
------------------------------------------------|
------------------------------------------------|
------------------555------777555---------------|
---888555777---888---777---------888---8-----7--|
000---------555---------888---------7-----T-----|


Guitar 1
------------------------------------------------|
------------------------------------------------|
---------------------------5--------------------|    (x4)
---7--3--5-----7--8--5--------8--7-----7-----5--|
------------------------------------------------|
0-----------5-----------8-----------7-----T-----|


Guitar 2
------------------------------------------------|
------------------------------------------------|
------------------------------------------------|    (x4)
------------------5--------7--5-----------------|
---8--5--7-----8-----7-----------8-----8-----7--|
0-----------5-----------8-----------7-----T-----|


Rythm (guitar solo)
----------------------------------------------------------------|
----------------------------------------------------------------|
----------------------------------------------------------------|
----------------------------------------------------------------|   (x4)
00000000000000005555555555555555888888888888888877777777TTTTTTTT
00000000000000005555555555555555888888888888888877777777TTTTTTTT
****************************************************************

I only have the second half of the solo so I'll just put it on here when it's done.


Both Guitars (ending)
----------------------------------------------------------------|
----------------------------------------------------------------|
----------------------------------------------------------------|
----------------------------------------------------------------|   (x2)
000-000-000-000-555-555-555-555-888-888-888-888-777-777-TTT-TTT-|
000-000-000-000-555-555-555-555-888-888-888-888-777-777-TTT-TTT-|
*** *** *** *** *** *** *** *** *** *** *** *** *** *** *** ***
-----
-----
-----
-----
0-0--
0-0--






Like us on Facebook