Bleeding Hearts Shed No Tears Bass Tab - Atreyu




C,G,C,F tuning

Intro (0:13)
F |------------------------------|-------|
C |------------------------------|-------|
G |------------------------------|-------|
C |--11-11-11-6-6-6-7-7-7-9-9-9--|--11~--|

Verse (0:29)
F |-----------------------------------------------------------|
C |-----------------------------------------------------------|
G |-----------------------------------------------------------|
C |--11-11-11-11--11-11-11-11--6666-6666-7777-7777-9999-9999--|

Pre Chorus (0:42)
F |----------------------------------|
C |----------------------------------|
G |----------------------------------|
C |--11-11-11-6-6-6-7-7-7-9-9-14-13--|

Chorus (0:54)
F |---------------------------------------|
C |---------------------------------------|
G |---------------------------------------|
C |--11-11-11-11-11-11-11-11-6-6-6-7-7-7--|

Verse (1:06)
Prechorus (1:18)
Chorus (1:30)

Brigde (1:52)
F |-----------------------------------------|
C |-----------------------------------------|
G |--4-4---------------4-4------------------|
C |------6-7~-9-9-7-6~-----6-7~-4-4-4-6-7~--|

Verse (2:19)
Prechorus (2:31)
Chorus (2:44)

ĂŽnscrie-te la newsletter


Join the ranks ! LIKE us on Facebook