Lose It (ver2) Tab - Atreyu




Tabbed by: Zero
E-mail: guitar_junkie_0912@yahoo.com

Tuning: Drop C (CGCFAD)

Intro guitar 1
d|--------------------------------------|
a|--------------------------------------|
f|-7h9--0--11/12--070--7h9--11/12--070--|
c|--------------------------------------|  x2
g|--------------------------------------|
c|--------------------------------------|

d|---------------------------------------------------|
a|---------------------------------------------------|
f|-12h16--0--16/17--0-12-0-12h16--0--16/17--0-12-0---|
c|---------------------------------------------------|   x2
g|---------------------------------------------------|
c|---------------------------------------------------|

Intro Guitar 2
d|------------------------------------------------|
a|------------------------------------------------|
f|------------------------------------------------|
c|-222-22----0-0----0-0---222-22----0-0---0-0-----|
g|-222-22----0-0----0-0---222-22----0-0---0-0-----|
c|-222-22----0-0----0-0---222-22----0-0---0-0-----|
   ...                    ...

d|---------------------------|
a|---------------------------|
f|-555-5~----222-2~----------|
c|-555-5~----222-2~----------|
g|-333-3~----000-0~----------|
c|---------------------------|
   ...       ...

verse
d|------------------------------------------------|
a|-------0-----------0-----------0----------0-----|
f|---0-----0-----0-----0-----0-----0----0-----0---|
c|-2---2-------2---2-------2---2------2---2-------|
g|------------------------------------------------|
c|------------------------------------------------|

d|-----------------------------------------------------|
a|-----------------------------------------------------|
f|-------0-----------0-----------0------------0--------|
c|---2-----2-----2-----2-----2------2-----2-----2------|
g|-3---3-------3---3-------3---3--------3---3----------|
c|-----------------------------------------------------|

Chorus Guitar 1
d|--------------------------------------------------------------------------|
a|--------------------------------------------------------------------------|
f|--------16-16-16-16-16-16-16-16-16-16--------16-16-16-16-16-16-16/1716---|
c|-2-2-2---------------------------------2-2-2------------------------------|
g|-2-2-2--14-14-14-14-14-14-14-14-14-14--2-2-2-14-14-14-14-14-16-14/1514---|
c|-2-2-2---------------------------------2-2-2------------------------------|

d|--------------------------------------------------------------------------|
a|--------------------------------------------------------------------------|
f|-12-12-12-14-14-14-16-16-16-16-16-16-16--9-9-9-11-11-11-12-12-12-12-12-12-|
c|--------------------------------------------------------------------------|
g|-10-10-10-12-12-12-14-14-14-14-14-14-14--7-7-7-9--9--9--10-10-10-10-10-10-|
c|--------------------------------------------------------------------------|

Chorus Guitar 2
d|--------------------------------------------------------------------------|
a|--------------------------------------------------------------------------|
f|--------12-12-12-12-12-12-12-12-12-12--------12-12-12-12-12-12-12/1412---|
c|-2-2-2---------------------------------2-2-2------------------------------|
g|-2-2-2--10-10-10-10-10-10-10-10-10-10--2-2-2-10-10-10-10-10-10-10/1210---|
c|-2-2-2---------------------------------2-2-2------------------------------|

d|------------------------------------------------|
a|------------------------------------------------|
f|-5555555555555555-2222222222222222--------------|
c|-5555555555555555-2222222222222222--------------|
g|-3333333333333333-0000000000000000--------------|
c|------------------------------------------------|

Verse Guitar 1
d|-12-12-12-12-7-7-7-7-3-3----12-12-12-12-7-7-7-7-0-0------|
a|-------------------------------------------------------------|
f|-------------------------------------------------------------|
c|-------------------------------------------------------------|
g|-------------------------------------------------------------|
c|-------------------------------------------------------------|

d|-2-2-2-3-3-3-5-5-5-7-7-7---0-0-0-2-2-2-3-3-3-5-5-5-----------|
a|-------------------------------------------------------------|
f|-------------------------------------------------------------|
c|-------------------------------------------------------------|
g|-------------------------------------------------------------|
c|-------------------------------------------------------------|

verse Guitar 2
d|------------------------------------------------|
a|-------0-----------0-----------0----------0-----|
f|---0-----0-----0-----0-----0-----0----0-----0---|
c|-2---2-------2---2-------2---2------2---2-------|
g|------------------------------------------------|
c|------------------------------------------------|

d|-----------------------------------------------------|
a|-----------------------------------------------------|
f|-------0-----------0-----------0------------0--------|
c|---2-----2-----2-----2-----2------2-----2-----2------|
g|-3---3-------3---3-------3---3--------3---3----------|
c|-----------------------------------------------------|

Chorus Guitar 1
d|--------------------------------------------------------------------------|
a|--------------------------------------------------------------------------|
f|--------16-16-16-16-16-16-16-16-16-16--------16-16-16-16-16-16-16/1716---|
c|-2-2-2---------------------------------2-2-2------------------------------|
g|-2-2-2--14-14-14-14-14-14-14-14-14-14--2-2-2-14-14-14-14-14-16-14/1514---|
c|-2-2-2---------------------------------2-2-2------------------------------|

d|--------------------------------------------------------------------------|
a|--------------------------------------------------------------------------|
f|-12-12-12-14-14-14-16-16-16-16-16-16-16--9-9-9-11-11-11-12-12-12-12-12-12-|
c|--------------------------------------------------------------------------|
g|-10-10-10-12-12-12-14-14-14-14-14-14-14--7-7-7-9--9--9--10-10-10-10-10-10-|
c|--------------------------------------------------------------------------|

Chorus Guitar 2
d|--------------------------------------------------------------------------|
a|--------------------------------------------------------------------------|
f|--------12-12-12-12-12-12-12-12-12-12--------12-12-12-12-12-12-12/1412---|
c|-2-2-2---------------------------------2-2-2------------------------------|
g|-2-2-2--10-10-10-10-10-10-10-10-10-10--2-2-2-10-10-10-10-10-10-10/1210---|
c|-2-2-2---------------------------------2-2-2------------------------------|

d|------------------------------------------------|
a|------------------------------------------------|
f|-5555555555555555-2222222222222222--------------|
c|-5555555555555555-2222222222222222--------------|
g|-3333333333333333-0000000000000000--------------|
c|------------------------------------------------|

Bridge Guitar 1
d|-12----12----14----15----12----12----14----15--------15----15----15---15-|
a|----12----12----12----12----12----12----12----12--17----17----17----17---|
f|-------------------------------------------------------------------------|
c|-------------------------------------------------------------------------|
g|-------------------------------------------------------------------------|
c|-------------------------------------------------------------------------|

Bridge guitar 2
d|-----------------------------------------------------------|
a|-----------------------------------------------------------|
f|-------------------------------5-5--5-5-55--2-2--2-2-22----|
c|-2-2---2-2-22----2-2---2-2-22--5-5--5-5-55--2-2--2-2-22----|
g|-2-2---2-2-22----2-2---2-2-22--3-3--3-3-33--0-0--0-0-00----|
c|-2-2---2-2-22----2-2---2-2-22------------------------------|
   . .   . . ..    . .   . . ..  . .  . . ..  . .  . . ..
Chorus Guitar 1
d|--------------------------------------------------------------------------|
a|--------------------------------------------------------------------------|
f|--------16-16-16-16-16-16-16-16-16-16--------16-16-16-16-16-16-16/1716---|
c|-2-2-2---------------------------------2-2-2------------------------------|
g|-2-2-2--14-14-14-14-14-14-14-14-14-14--2-2-2-14-14-14-14-14-16-14/1514---|
c|-2-2-2---------------------------------2-2-2------------------------------|

d|--------------------------------------------------------------------------|
a|--------------------------------------------------------------------------|
f|-12-12-12-14-14-14-16-16-16-16-16-16-16--9-9-9-11-11-11-12-12-12-12-12-12-|
c|--------------------------------------------------------------------------|
g|-10-10-10-12-12-12-14-14-14-14-14-14-14--7-7-7-9--9--9--10-10-10-10-10-10-|
c|--------------------------------------------------------------------------|

Chorus Guitar 2
d|--------------------------------------------------------------------------|
a|--------------------------------------------------------------------------|
f|--------12-12-12-12-12-12-12-12-12-12--------12-12-12-12-12-12-12/1412---|
c|-2-2-2---------------------------------2-2-2------------------------------|
g|-2-2-2--10-10-10-10-10-10-10-10-10-10--2-2-2-10-10-10-10-10-10-10/1210---|
c|-2-2-2---------------------------------2-2-2------------------------------|

d|------------------------------------------------|
a|------------------------------------------------|
f|-5555555555555555-2222222222222222--------------|
c|-5555555555555555-2222222222222222--------------|
g|-3333333333333333-0000000000000000--------------|
c|------------------------------------------------|

Post Chorus Guitar 1
d|----------------------------------|
a|----------------------------------|
f|-9-9---11-11---12-12---16-16------|
c|----------------------------------|
g|-7-7---9--9----10-10---14-14------|
c|----------------------------------|

Post chorus guitar 2
d|--------------------------------------|
a|--------------------------------------|
f|------4-4--5-5--7-7-------------------|
c|-2-2--4-4--5-5--7-7-------------------|
g|-2-2--2-2--3-3--5-5-------------------|
c|-2-2----------------------------------|

Outro guitar 1
d|--------------------------------------|
a|--------------------------------------|
f|-7h9--0--11/12--070--7h9--11/12--070--|
c|--------------------------------------|  x2
g|--------------------------------------|
c|--------------------------------------|

d|---------------------------------------------------|
a|---------------------------------------------------|
f|-12h16--0--16/17--0-12-0-12h16--0--16/17--0-12-0---|
c|---------------------------------------------------|   x2
g|---------------------------------------------------|
c|---------------------------------------------------|

Outro Guitar 2
d|------------------------------------------------|
a|------------------------------------------------|
f|------------------------------------------------|
c|-222-22----0-0----0-0---222-22----0-0---0-0-----|
g|-222-22----0-0----0-0---222-22----0-0---0-0-----|
c|-222-22----0-0----0-0---222-22----0-0---0-0-----|
   ...                    ...

d|---------------------------|
a|---------------------------|
f|-555-5~----222-2~----------|
c|-555-5~----222-2~----------|
g|-333-3~----000-0~----------|
c|---------------------------|
   ...       ...

Both guitars
d|-------------------|
a|-------------------|
f|-------------------|
c|-----222-2---------|
g|-----222-2---------|
c|-----222-2---------|
       ... .

ĂŽnscrie-te la newsletter


Join the ranks ! LIKE us on Facebook