Enigma Bass Tab - Atrocity






Band: Atrocity
Song: Enigma
Album: Atlantis
Tuning: DAEB or five string

Chorus
D|-------------------|
A|-------------------| x2
E|-----222-----------|
B|--00-----3333-555--|

D|------------------------------|
A|------------------------------|
E|------------------22-----445--|
B|--33-111-444-5550----333------|

Verse
D|------------------------------------|
A|------------------------------------| x6
E|-------46-5555555-4444444-----------|
B|--0000--------------------1111-2h3--|

D|------------------------------------|
A|------------------------------------|
E|--22222222-11111111-00000000--------|
B|-----------------------------22222--|

D|------------------------------------|
A|------------------------------------| x2
E|-------46-5555555-4444444-----------|
B|--0000--------------------1111-2h3--|

Chorus x1

Verse 2
D|------------------------------------|
A|------------------------------------| x4
E|-------46-5555555-4444444-----------|
B|--0000--------------------1111-2h3--|

D|------------------------------------|
A|------------------------------------|
E|--22222222-11111111-00000000--------|
B|-----------------------------22222--|


D|------------------------------------|
A|------------------------------------| x2
E|-------46-5555555-4444444-----------|
B|--0000--------------------1111-2h3--|

Chorus x2

Bridge
D|--------------------------------------------------------|
A|--------------------------------------------------------| 
E|------2----22-----1----11-------------------------2222--|
B|--000---33----000---22----0003-0033-00003-0000000-------|

D|------------------------------------|
A|------------------------------------| x3
E|-------46-5555555-4444444-----------|
B|--0000--------------------1111-2h3--|

Chorus 2 x2
D|-------------------|
A|-------------------| x2
E|-----444-----------|
B|--00-----4444-666--|

D|-------------------------------|
A|-------------------------------|
E|------------------44-----66-7--|
B|--55-333-666-7770----555-------|

End
D|-------|
A|-------|
E|--4----|
B|----4--|

ĂŽnscrie-te la newsletter


Like us on Facebook