A For Andrew Tab - Attack Attack!






This is my first tab so take it easy on me.
Tell me how it is, I know it's not 100% but i tried.
Tune Drop A. (A E A D G B)
I have an illness
|-------------------------------------------------------------|
|-------------------------------------------------------------|
|-------------------------------------------------------------|   x4
|-0-----------------0-000-0-----------------------------------|
|-0-----------------0-000-0-----------------------------------|
|-0-/12-12-12-12-12-1-111-0-/12-12-12-12-12-1-0-1/4-----------|
I regret so many things I've done
|--------------------------------------------------------------|
|--------------------------------------------------------------|
|--------------------------------------------------------------|
|--------------------------------------------------------------| x4
|--------------------------------------------------------------|
|0000-12-0000-4b-0000-12-00000-4/6-1---------------------------|
How nieve I was
|--------------------------------------------------------------|
|--------------------------------------------------------------|
|--------------------------------------------------------------|
|-0------0-----------------------------------------------------|
|-0------0-----------------------------------------------------|
|-1------0-0-2-0-1b--------------------------------------------|
*      *               (You can get the pattern^^)
I've suffered the consequences
|--------------------------------------------------------------|
|--------------------------------------------------------------|
|--------------------------------------------------------------|
|-3-6-0--0-0-0-00-00-------------------------------------------|
|-3-6-0--0-0-0-00-00-------------------------------------------|
|-3-6-0--0-0-0-00-00-------------------------------------------|
** **
I've put so many things above you
|---------------------------------------------------------------|
|---------------------------------------------------------------|
|---------------------------------------------------------------|
|-8----5----0----3----------------------------------------------| x2
|-8----5----0----3----------------------------------------------|
|-8----5----0----3----------------------------------------------|
How nieve I was
|--------------------------------------------------------------|
|--------------------------------------------------------------|
|--------------------------------------------------------------|
|-0------0-----------------------------------------------------|
|-0------0-----------------------------------------------------|
|-1------0-0-2-0-1b--------------------------------------------|
*      *              (You can get the pattern^^)
My head starts pounding
|-------------------------------------------------------------|
|-------------------------------------------------------------|
|-------------------------------------------------------------|   x2
|-0-----------------0-000-0-----------------------------------|
|-0-----------------0-000-0-----------------------------------|
|-0-/12-12-12-12-12-1-111-0-/12-12-12-12-12-1-0-1/4-----------|
I've suffered the consequences
|--------------------------------------------------------------|
|--------------------------------------------------------------|
|--------------------------------------------------------------|
|-3-6-0--0-0-0-00-00-------------------------------------------|
|-3-6-0--0-0-0-00-00-------------------------------------------|
|-3-6-0--0-0-0-00-00-------------------------------------------|
** **
I've put so many things above you
|-------------------------------------------------------------|
|-------------------------------------------------------------|
|-------------------------------------------------------------|
|-8----5----0----3--------------------------------------------| x4
|-8----5----0----3--------------------------------------------|
|-8----5----0----3--------------------------------------------|
(Breakdown)
|--------------------------------------------------------------|
|--------------------------------------------------------------|
|--------------------------------------------------------------|
|-0---------------------------------------------------3-6-1----|
|-0---------------------------------------------------3-6-1----|
|-0-----1b-1b-1b--------------------------------------3-6-1----|
(Once again you can get the pattern^^)






Like us on Facebook