Ac 130 Tab - Attack Attack!






"You think you could be God!"
C#------|
G#------|
E-------|
B-------|
F#------|
F#-0h1p0|
Main part
C#----------------------------|
G#----------------------------|
E-----------------------------|
B-----------------------------|
F#-00000-00000-00000----------|
F#-00000-00000-00000--0h1-0h1-|
Verse
C#--------------------------|
G#--------------------------|
E---------------------------|
B---------------------------|
F#--------------------------|
F#0-12-0-12-0-12-0-0-0-0----|b9
Other Guitar(Breakdown)
C#-------------------------|
G#-------------------------|
E--------------------------|
B--------------------------|
F#-0-00--00-0-00-0---------|
F#-1-11--11-1-11-1---------|
Breakdown(both guitars
C#-------------------------|
G#-------------------------|
E--------------------------|
B--------------------------|
F#-0-00--00-0-00-0---------|
F#-1-11--11-1-11-1---------|
C#-------------------------|
G#-------------------------|
E--------------------------|
B--------------------------|
F#-0-00--00-0-00-0---------|
F#-1-11--11-1-11-1--0-0----|






Like us on Facebook