Dr Shavargo Part 3 Tab - Attack Attack!






-------------------------------------------------------------------------------
Dr Shavargo pt 3 - Attack Attack
-------------------------------------------------------------------------------
Tabbed by: Aaron
Email: lonespartan@sbcglobal.net
This tab is only for ONE guitar, its mostly for the octaves and what not.
The second guitar plays a lot of power chords under it.
Im not doing strumming patterns, they are super easy to figure out. Just giving the 
i heard. Hope it helps.
This is also my first tab, and I did it on my acoustic because i did not have my 
available. :]
Tuning: Drop C#
[0:08 - 0:26]
D#|-----------------------------|
A#|-----------------------------|
F#|-14-/-15---12--10---9--------|      2x
C#|-x----x-----x--x----x--------|
G#|-12-/-13---10--8----7--------|
C#|-----------------------------|
[0:26 - 0:42]
e|-----------------------------------------------------------------|
B|-----------------------------------------------------------------|
G|-----------------------------------------------------------------|
D|--0-0-0-0----10-10-10-10----8-8-8-8----10-10-10-10---------------|
A|--0-0-0-0----10-10-10-10----8-8-8-8----10-10-10-10---------------|
E|--0-0-0-0----10-10-10-10----8-8-8-8----10-10-10-10---------------|
[0:42 - 1:12]
e|----------------------------------------------------------|
B|----------------------------------------------------------|
G|----14--14-----14--14-----10-10-----12-/-14--12----------|
D|-0--x---x---0--x---x---8--x--x--10--x----x----x-----------| 4x
A|-0--12--12--0--12--12--8--8--8--10--10-/-12--10----------|
E|-0----------0----------8--------10------------------------|
[1:16 - 1:24] and [1:32 - 1:38]
e|--------------------|
B|--------------------|
G|--------------------|
D|--0-000-0-00000-----|
A|--0-000-0-00000---3*|
E|--0-000-0-00000-----|
[1:25-1:32] and [1:38-1:44]
e|--------------------|
B|--------------------|
G|--------------------|
D|--1-111-1-11111-----|
A|--1-111-1-11111-----|
E|--0-000-0-00000---3*|
[guitar is playing some chords in light distortion with piano]
[piano interlude 1:46 - 2:16]
[2:16 - 2:45]
e|----------------------|
B|----------------------|
G|----------------------|
D|--0---10---8---10-----|
A|--0---10---8---10-----|
E|--0---10---8---10-----|
[2:46 - 3:01]
e|----------------------------------------------------------|
B|----------------------------------------------------------|
G|----14--14-----14--14-----10-10-----12-/-14--12----------|
D|-0--x---x---0--x---x---8--x--x--10--x----x----x-----------|
A|-0--12--12--0--12--12--8--8--8--10--10-/-12--10----------|
E|-0----------0----------8--------10------------------------|
[3:02 - 3:17]
e|--------------|
B|--------------|
G|--------------|
D|-0----8---10--|
A|-0----8---10--|
E|-0----8---10--|
x8   x4  x4
[3:27 - 3:33 Lightly come in]
e|--------------------|
B|--------11------11--|
G|----14------14------|
D|--------------------|
A|--------------------|
E|--------------------|
[3:34 - end]
e|--------------------|
B|--------------------|
G|--------------------|
D|--1-111-1-11111-----|
A|--1-111-1-11111-----|
E|--0-000-0-00000-----|
| /  slide up
|   slide down
| h  hammer-on
| p  pull-off
| ~  vibrato
| +  harmonic
| x  Mute note
===============================================================================






Like us on Facebook