I Swear Ill Change Tab - Attack Attack!






Attack Attack!
"I Swear Ill Change
Attack Attack!
Drop B tuning: B F# B E G# C#
Sick, easy song off the new CD
Intro:
|Stop here on the 5th time
C#|-----------------------------------------------------|----------------------|
G#|----------------------------------------------------------------------------|
E-|-10---x8--9---x8----12---12---12---12---10---10---9---x6-10---10---9---9----| x4.5
B-|----0-------0----------0----0----0----0----0----0---0-------0----0---0---0--|
F#|----------------------------------------------------------------------------|
B-|----------------------------------------------------------------------------|
Chorus:  (without lyrics)
C#|---------------------------------------------------------------------------|
G#|---------------------------------------------------------------------------|
E-|---------------------------------------------------------------------------| x2
B-|----12-----7------8------7-------------------------------------------------|
F#|----12-----7------8------7-------------------------------------------------|
B-|----12-----7------8------7-------------------------------------------------|
Verse:Bass
Chorus:
C#|---------------------------------------------------------------------------|
G#|---------------------------------------------------------------------------|
E-|---------------------------------------------------------------------------| x2
B-|----12-----7------8------7-------------------------------------------------|
F#|----12-----7------8------7-------------------------------------------------|
B-|----12-----7------8------7-------------------------------------------------|
Bridge:
C#|---------------------------------------------------------------------------|
G#|---------------------------------------------------------------------------|
E-|---------------------------------------------------------------------------| x4
B-|---0-0-0--0-0-0---000-0-000-0-000-0-000-0-0-0-0-0-0-0----------------------|
F#|---0-0-0--0-0-0---000-0-000-0-000-0-000-0-0-0-0-0-0-0----------------------|
B-|---0-0-0--0-0-0---000-0-000-0-000-0-000-0-0-0-0-0-0-0----------------------|
Verse:Bass
Chorus:
C#|---------------------------------------------------------------------------|
G#|---------------------------------------------------------------------------|
E-|---------------------------------------------------------------------------| x4
B-|----12-----7------8------7-------------------------------------------------|
F#|----12-----7------8------7-------------------------------------------------|
B-|----12-----7------8------7-------------------------------------------------|
If you want to be fancy, in the chorus you can add your 4th finger on the 11th fret the 
time you play the 7th fret. Like this:
C#|---------------------------------------------------------------------------|
G#|---------------------------------------------------------------------------|
E-|---------------------------------------------------------------------------|
B-|----12-----7------8------11------------------------------------------------|
F#|----12-----7------8------7-------------------------------------------------|
B-|----12-----7------8------7-------------------------------------------------|
My first tab, so be nice






Like us on Facebook