Interlude Tab - Attack Attack!






Standard Tuning
this is most of the song Interlude
its originally played on keyboard but its really fun to play on guitar
~INTRO~
---------------------------------------------------|
---------------------------------------------------|
---------------------------------------------------|
---------------------------------------------------|
4-4-4-6-7----0-0-0-6-7-----7-7-7-11-9----------7-6-|
-----------------------------------------7-7-7-----|
~LEAD~
--------------------------------------------------------|
--------------------------------------------------------|
--------------------------------------------------------|
----6-4----------6--4-6-------6-4---9-6-4---------------|
7-4----7-6-7--7----7----6-7-4-----7-------7-6-7-----6-7-|
----------------7---------------------------------7-----|
~SOLO~
WILL BE ADDED SOON
~THINGY AFTER SOLO~
------------------------------------------------------|
------5p4-5-5-5------5-4-5-------5p4-5-5-5------5-4-5-|THIS PART MAY NOT BE 100%
6-6-6----------6-6-6-------4-4-4-----------4-4-4------|CORRECT LEAVE A COMMENT
------------------------------------------------------|IF YOU SPOT A MISTAKE!!!!
------------------------------------------------------|
------------------------------------------------------|






Like us on Facebook