Party Foul Tab - Attack Attack!






First tab, hope you like. E-mail is fftl_rocker@hotmail.com
Intro - all done twice
|-----------------------------------------------------------------|
|-----------------------------------------------------------------|
|-1010-10-10~-----------------------------------------------------|
|-1010-10-10~(times 2)--88-8-8~--1010-10-10~----------------------|
|--8-8--8--8~-----------88-8-8~--1010-10-10~----------------------|
|-----------------------88-8-8~--1010-10-10~----------------------|
Chorus - all done twice
|---------------------------------------------------------------------|
|---------------------------------------------------------------------|
|-77-999-1010101010101010---------------------------------------------|
|-xx-xxx--x-x-x-x-x-x-x-x-(x2)-88-8888-88-8888-55-5555-55-5555--------|
|-55-777--8-8-8-8-8-8-8-8------88-8888-88-8888-55-5555-55-5555--------|
|------------------------------88-8888-88-8888-55-5555-55-5555--------|
Pre-Break down
|------------------------------------------------------------|
|------4b----------------------4b----------------------------|
|------7b----------------------7b----------------------------|
|000~-------000~----------000~-----000-----------------------|
|000~-------000~----------000~-----000-----------------------|
|000~-------000~12/-12---000~-----000-----------------------|
Break down (All palm muted except for pinch harmonic)
|------------------------------------------|
|------------------------------------------|
|------------------------------------------|
|------------------------------------------|
|000-000-00000000-0000-0-0000--------------|
|000-000-00000000-0000-0-0000--------------|
|------------------------------------------|
|------------------------------------------|
|------------------------------------------|
|------------------------------------------|
|000-000-00000000-000-12*-----------------|
|000-000-00000000-000----------------------|
|------------------------------------------|
|------------------------------------------|
|------------------------------------------|
|------------------------------------------|
|000-000-00000000-0000-0-0000--------------|
|000-000-00000000-0000-0-0000--------------|
|------------------------------------------|
|------------------------------------------|
|------------------------------------------|
|------------------------------------------|
|000-000-00000000-000-12------------------|
|000-000-00000000-000-12------------------|
|------------------------------------------|
|------------------------------------------|
|------------------------------------------|
|------------------------------------------| 
|000-000-00000000-10101010-121212----------|  
|000-000-00000000--------------------------|   
Repeat Twice
|------------------------------------------|    /
|------------------------------------------|   /
|------------------------------------------|  /
|------------------------------------------| /
|000-000-00000000-0000-0-0000--------------|/
|000-000-00000000-0000-0-0000--------------|
Post Break Down (Repeat a second time but instead whammy down instead of doing the slide)
|-----------------------------------------------------|
|-----------------------------------------------------|
|----1413-----14-14-14-14-----1414-----1414-----------|
|----1313-----13-13-13-13-----1313-----1313-----------|
|----1212-----12-12-12-12-----1212-----1212-12-------|
|0000-----0000------------0000-----0000-----12-------|
|----------------------------------------------------------|
|----------------------------------------------------------|
|----1413-----14-14-14-14-----1414-----14-14-14-14---------|
|----1313-----13-13-13-13-----1313-----13-13-13-13---------|
|----1212-----12-12-12-12-----1212-----12-12-12-12---------|
|0000-----0000------------0000-----0000--------------------|
|-----------------------------------------------------|
|-----------------------------------------------------|
|----1413-----14-14-14-14-----1414-----1414-----------|
|----1313-----13-13-13-13-----1313-----1313-----------|
|----1212-----12-12-12-12-----1212-----1212-12-------|
|0000-----0000------------0000-----0000-----12-------|
Pre-chorus (Just strum it until it changes)
|------------------------------------------|
|------------------------------------------|
|-19---------------------------------------|
|--x---------------------------------------|
|-17---------------------------------------|
|------------------------------------------|
Chorus
Pre-break down
Final break down
|---------------------------------------------------------------------------|
|----------1212121212121212-1616161616161616--------------------------------|
|----------1515151515151515-1919191919191919---------------------------10*--|
|---------------------------------------------------------------------------|
|-11-11111------------------------------------11-11111--8--8--8-7-5-7-------|
|-22-22222------------------------------------22-22222---00-00-0-0-0-0------|
|--------------------------------------------------------------------------|
|-------------------------------1212121212121212-1616161616161616----------|
|-------------------------------1515151515151515-1919191919191919----------|
|----------------------------------------------------------------------0~--|
|-11-11111----43232----11-11111----------------------------------------0~--|
|-22-22222----54343-3*-22-22222----------------------------------------0~--|






Like us on Facebook