Renob Nevada Tab - Attack Attack!






-------------------------------------------------------------------------------
RENOB, NEVADA  Attack Attack!
-------------------------------------------------------------------------------
INTRO
Guitar 1      2x
|-------------|-------------------------------------------------------------|
|-------------|-------------------------------------------------------------|
|-------------|-------------------------------------------------------------|
|-------------|-------------------------------------------------------------|
|-00000-------|-00000--000-00-00--000-00-00-00000--000-00-00-3--2----3--3---|
|-11111-------|-11111--111111111--111-11-11-11111--111111111--00-003--1b-1b-|
.....         .....  ... .. ..  ... .. .. .....  ... .. ..  .. ..
Guitar 2      2x
|-------------|-------------------------------------------------------------|
|-------------|-------------------------------------------------------------|
|-------------|-------------------------------------------------------------|
|-------------|-------------------------------------------------------------|
|-------00000-|-00000--000-00-00--000-00-00-00000--000-00-00-----000-3--3---|
|-------11111-|-11111--111111111--111-11-11-11111--111111111-----111--1b-1b-|
.....   .....  ... .. ..  ... .. .. .....  ... .. ..     ...
verse
Guitar 1
|-------8-----|
|-----6---6---|
|-7-9-------9~|
|-------------|
|-------------|
|-------------|
Guitar 2
|-------------|
|-------------|
|-------------|
|-00----------|
|-00----------|
|-00----------|
Both
|-----------------------------------------------------------------|
|-----------------------------------------------------------------|
|-----------------------------------------------------------------|
|-0-------3-------10--------------0-------3-------2---------------|
|-0-------3-------8---------------0-------3-------3---------------| 2x
|-0-------3-------8---------------0-------3-------2---------------|
BREAKDOWN
Guitar 1
|------8------8--------------|
|-----6---6~----6----6--11---|
|-7-9-------------9--9--13---|
|----------------------------|
|-------------------0--0-----| 4x
|-------------------0--0-----|
.  .
Guitar 2
|----------------------------|
|----------------------------|
|----------------------------|
|--------------------3--10---|
|-00000--------0000003-08----| 4x
|-00000--------0000003-08----|
.  .
CHORUS
Both
|-------------------------|
|-------------------------|
|-------------------------|
|-0-------3-------10------|
|-0-------3-------8-------|
|-0-------3-------8-------|
|------------------------------------------------------------------|
|------------------------------------------------------------------|
|------------------------------------------------------------------|
|-0-------3-------7-------8-------0-------3-------8-------10-------|
|-0-------3-------7-------8-------0-------3-------8-------10-------|
|-0-------3-------7-------8-------0-------3-------8-------10-------|
INTRO
CHORUS
BREAKDOWN
INTRO
************************************
| ~   vibrato
| .   Mute note
| b   Bend
************************************






Like us on Facebook