Smokahontas Tab - Attack Attack!






-------------------------------------------------------------------------------
Smokahontas  Attack Attack!
-------------------------------------------------------------------------------
Tabbed by: Calum Manning
Email: calummanning18@googlemail.com
www.youtube.com/calumman17
Tuning: Drop B  B F# B E G# C#
Intro
|---------------------------------------------------------------------------|
|---------------------------------------------------------------------------|
|---------------------------------------------------------------------------|
|-1-1-1-1--1-1-1-1-1-1--1-1-1-1--------------------1-1-1-1--1-1-1-1-1-1-----|
|-1-1-1-1--1-1-1-1-1-1--1-1-1-1--------------------1-1-1-1--1-1-1-1-1-1-----|
|-1-1-1-1--1-1-1-1-1-1--1-1-1-1---3h6p4p3-3h6p4p3--1-1-1-1--1-1-1-1-1-1-----| x2
pm-----------------------------                  pm--------------------
the rhythm is easy to figure out 
Verse  
|---------------------------------------------------------------------------|
|---------------------------------------------------------------------------|
|---------------------------------------------------------------------------|
|-0-0-0-0--0-0-0-0-0-0--0-0-0-0--------------------0-0-0-0--0-0-0-0-0-0-----|
|-0-0-0-0--0-0-0-0-0-0--0-0-0-0--------------------0-0-0-0--0-0-0-0-0-0-----|
|-0-0-0-0--0-0-0-0-0-0--0-0-0-0---3h6p4p3-3h6p4p3--0-0-0-0--0-0-0-0-0-0-----| x2
pm-----------------------------                  pm--------------------
Dont play hammer ons or pull offs second time round
Chorus
|---------------------------------------------------------------------------|
|---------------------------------------------------------------------------|
|---------------------------------------------------------------------------|
|-5-5-5-5-5-5-5-5--8-8-8-8-8-8-8-8--0-0-0-0-0-0-0-0--3-3-3-3-3-3-3-3--------|
|-5-5-5-5-5-5-5-5--8-8-8-8-8-8-8-8--0-0-0-0-0-0-0-0--3-3-3-3-3-3-3-3--------|
|-5-5-5-5-5-5-5-5--8-8-8-8-8-8-8-8--0-0-0-0-0-0-0-0--3-3-3-3-3-3-3-3--------| x2
|---------------------------------------------------------------------------|
|---------------------------------------------------------------------------|
|---------------------------------------------------------------------------|
|-8-8-8-8-8-8-8-8--8-8-8-8-8-8-8-8--3-3-3-3-3-3-3--7-7-7-7-7-7-7-7----------|
|-8-8-8-8-8-8-8-8--8-8-8-8-8-8-8-8--3-3-3-3-3-3-3--7-7-7-7-7-7-7-7----------|
|-8-8-8-8-8-8-8-8--8-8-8-8-8-8-8-8--3-3-3-3-3-3-3--7-7-7-7-7-7-7-7----------|
|---------------------------------------------------------------------------|
|---------------------------------------------------------------------------|
|-----------------------11/12/11--------------------1010101010101010--------|
|-3-5-0-1-0-----------------------3-5-0-1-0---------------------------------|
|-3-5-0-1-0-------------9-/10/9---3-5-0-1-0---------8-8-8-8-8-8-8-8---------|
|-3-5-0-1-0---000000-0------------3-5-0-1-0---0000--------------------------|
pm--------                      pm---
Breakdown 1
|-------------------------|--|-----------------------|
|-------------------------|--|-----------------------|
|-------------------------|--|-----------------------|
|-------------------------|--|---------------0-0-0-0-|
|-------------0-----0-----|x3|---------0-----0-0-0-0-|
|-000-1p0-000---1p0---1p0-|--|-000-1p0---1p0-0-0-0-0-|
pm---             
Chorus
|---------------------------------------------------------------------------|
|---------------------------------------------------------------------------|
|---------------------------------------------------------------------------|
|-5-5-5-5-5-5-5-5--8-8-8-8-8-8-8-8--0-0-0-0-0-0-0-0--3-3-3-3-3-3-3-3--------|
|-5-5-5-5-5-5-5-5--8-8-8-8-8-8-8-8--0-0-0-0-0-0-0-0--3-3-3-3-3-3-3-3--------|
|-5-5-5-5-5-5-5-5--8-8-8-8-8-8-8-8--0-0-0-0-0-0-0-0--3-3-3-3-3-3-3-3--------| x2
|---------------------------------------------------------------------------|
|---------------------------------------------------------------------------|
|---------------------------------------------------------------------------|
|-8-8-8-8-8-8-8-8--8-8-8-8-8-8-8-8--3-3-3-3-3-3-3--7-7-7-7-7-7-7-7----------|
|-8-8-8-8-8-8-8-8--8-8-8-8-8-8-8-8--3-3-3-3-3-3-3--7-7-7-7-7-7-7-7----------|
|-8-8-8-8-8-8-8-8--8-8-8-8-8-8-8-8--3-3-3-3-3-3-3--7-7-7-7-7-7-7-7----------| x2
Techno rave bit
Breakdown 2
|---------------------------------------------------------|
|---------------------------------------------------------|
|---------------------------10-10-10-101010-121212-141414-|
|---------------------------------------------------------|
|-------------0-----0-------8--8--8--8-8-8--101010-121212-|
|-000-1p0-000---1p0---1p0---------------------------------| x2
pm---             
Breakdown 3
|-------------------------------------------------------|
|-------------------------------------------------------|
|-------------------------------------------------------|
|-0-0-0-1-0--4--000------0-1---0-0-0-1-0--6-6-6-6-6-6-6-|
|-0-0-0-1-0--4--000------0-1---0-0-0-1-0--6-6-6-6-6-6-6-|
|-0-0-0-1-0--4--000--1p0-0-1---0-0-0-1-0--6-6-6-6-6-6-6-| x4
pm---
Breakdown 4
|-------------------|
|-------------------|
|-------------------|
|-11111-1-11-1-1111-|
|-11111-1-11-1-1111-|
|-11111-1-11-1-1111-|
------------ ----
one guitar   both guitars 
Breakdown 5
|-------------------------------------------------------------------|
|-------------------------------------------------------------------|
|-------------------------------------------------------------------|
|-------------------------------------------------------------------|
|-0-0-0-0-0--0--0-0--0-0000000--0-0-0-0-0--0--0-0--0-0000000--------|
|-1-1-1-1-1--1--1-1--1-1111111--1-1-1-1-1--1--1-1--1-1111111--3/73-|
pm---------  -  ---  - -------  ---------  -  ---  - -------
Breakdown 6
|----------------------------------------------|
|----------------------------------------------|
|----------------------------------------------|
|----------------------------------------------|
|-0-0-0-0-0--0--0-0-0--0-0-0-0-0-0-0--0--0-0-0-|
|-0-0-0-0-0--0--0-0-0--0-0-0-0-0-0-0--0--0-0-0-|
similar rhythm to breakdown 5
Outro
|------------------------------------|
|------------------------------------|
|------------------------------------|
|------------------------------------|
|------------------------------------|
|-0-0-0-0-0--3/73--0-0-12~-0000-0-0-| x4
************************************
| /   slide up
|    slide down
| h   hammer-on
| p   pull-off
| ~   vibrato
| +   harmonic
| x   Mute note
| b   Bend
| pb  Pre-bend
| br  Bend release
| pbr Pre-bend release
| brb Bend release bend
************************************






Like us on Facebook