Turbo Swag Tab - Attack Attack!






-------------------------------------------------------------------------------
TURBO SWAG  Attack Attack!
-------------------------------------------------------------------------------
INTRO
|------------------------------------------------------------------|
|------------------------------------------------------------------|
|------------------------------------------------------------------|
|-0---------------3---------------8---------------10---------------|
|-0---------------3---------------8---------------10---------------|
|-0---------------3---------------8---------------10---------------|
|---------------------------------------------------------|
|---------------------------------------------------------|
|---------------------------------------------------------|
|---------------------------------------------------------|
|-0000----0000000----------0000----0000000----------------| 2x
|-0000----000000001001300--0000----0000000013b0012b12b----|
...     ... ...          ...     ... ...
PRE-CHORUS
|---------------------------------------------------------------------------|
|---------------------------------------------------------------------------|
|---------------------------------------------------------------------------|
|-88888888121212121212121210101010101010101111111111111111b-----------------|
|---------------------------------------------------------------------------|
|---------------------------------------------------------------------------|
CHORUS
|----------------------------------------------------------------|
|----------------------------------------------------------------|
|----------------------------------------------------------------|
|-0---------------3---------------8---------------7--------------|
|-0---------------3---------------8---------------7--------------|
|-0---------------3---------------8---------------7--------------|
|----------------------------------------------------------------|
|----------------------------------------------------------------|
|----------------------------------------------------------------|
|-0---------------3---------------8---------------10-------------|
|-0---------------3---------------8---------------10-------------|
|-0---------------3---------------8---------------10-------------|
VERSE
PRE-CHORUS
CHORUS
BRIDGE
|-------------------------------------------------------|
|-------------------------------------------------------|
|-------------------------------------------------------|
|-------------------------------------------------------|
|-00000---88888--88888888---55555---77777--7777777------|
|-00000---88888--88888888---55555---77777--7777777------|
....    ....   ....       ....    ....
|------------------------------------------------------|
|------------------------------------------------------|
|------------------------------------------------------|
|------------------------------------------------------|
|-00000---88888--88888888---55555---77777--------------|
|-00000---88888--88888888---55555---77777--33332222----|
....    ....   ....       ....    ....
CHORUS
ENDING
|----------|
|----------|
|----------|
|----------|
|-888-10-0-|
|-888-10-0-|
...
Comment/rate
************************************
| .   Mute note
| b   Bend
************************************






Like us on Facebook