Cochise (ver8) Tab - Audioslave






Tuning - (E,A,D,G,B,E)
Please Rate This Tab!

Intro:
With Effects= Distortion and Delay
e|--------------------------------------|
B|--------------------------------------|
G|-XXXXXXXXXXXXXXXXXXXXXXXXXXXXXXXXXXXX-|
D|-XXXXXXXXXXXXXXXXXXXXXXXXXXXXXXXXXXXX-| Repeat until 00:54
A|-XXXXXXXXXXXXXXXXXXXXXXXXXXXXXXXXXXXX-|
E|-XXXXXXXXXXXXXXXXXXXXXXXXXXXXXXXXXXXX-|

Verse:
e|---------------------------------------|
B|---------------------------------------|
G|---------------------------------------|
D|---------------------------------------| x11
A|-5h7--5---5----------5h7--5------------|
E|--------7---7--3--0---------7--3-0-----|

Last time:

e|-------------------------------------------|
B|-------------------------------------------|
G|-------------------------------------------|
D|------------------------------------7--8~--|x1
A|-5h7--5---5----------5h7--5---------5--6~--|
E|--------7---7--3--0---------7--3-----------|

Chorus:
There are many ways of playing this but i think this one sounds the best!
e|----------------------------------------------|
B|----------------------------------------------|
G|----------------------------------------------|
D|----------------------------------------------| x4
A|----7---7---2----------5----7--------5--------|
E|---------------3--0----3----5----7------------|

Solo with effects= Distortion and Delay:
e|------------------------------------------------------|
B|-2brbrbrbrbrbrbrbrb-r-----14brbrbrbrbrbrbrbrb-r-------|
G|------------------------------------------------------|
D|------------------------------------------------------| x1
A|------------------------------------------------------|
E|------------------------------------------------------|

Verse:
e|---------------------------------------|
B|---------------------------------------|
G|---------------------------------------|
D|---------------------------------------| x7
A|-5h7--5---5----------5h7--5------------|
E|--------7---7--3--0---------7--3-0-----|

Last time:
e|-------------------------------------------|
B|-------------------------------------------|
G|-------------------------------------------|
D|------------------------------------7--8~--| x1
A|-5h7--5---5----------5h7--5---------5--6~--|
E|--------7---7--3--0---------7--3-----------|


Chorus:
e|----------------------------------------------|
B|----------------------------------------------|
G|----------------------------------------------|
D|----------------------------------------------| x8
A|----7---7---2----------5----7--------5--------|
E|---------------3--0----3----5----7------------|


Interlude:
e|--------------------------|
B|--------------------------|
G|--------------------------|
D|--9v-----9v----x----------| x4
A|--------------------------|
E|------7------7-x----------|
Then:
e|------------------------|--------------------|
B|---Play-this-3-times----|--fourth-time-------|
G|------------------------|--------------------|
D|--------------------x---|----------7~--------|
A|--7v---------7v---------|--7v------5~--------|
E|--------0---------0-x---|-----0--------------|

Then Chorus:
e|----------------------------------------------|
B|----------------------------------------------|
G|----------------------------------------------| 
D|----------------------------------------------| x12
A|----7---7---2----------5----7--------5--------|
E|---------------3--0----3----5----7------------|

Last time play:

e|-------------------------------------------|
B|-------------------------------------------|
G|-------------------------------------------|
D|-----------(slide-down-fret-board)---------| x1
A|----7---7---------------------------------|
E|-------------------------------------------|

Key
h= Hameron
v= virbrate string a little.
x= stop string from sounding.
~= let ring

Fin!

ĂŽnscrie-te la newsletter


Like us on Facebook