Out Of Exile (album) Tab - Audioslave






======================================================================================
                           Audioslave - Out Of Exile
======================================================================================

1. Your Tim Has Come
2. Out Of Exile
3. Be Yourself
4. Doesn't Remind Me
5. Drown Me Slowly
6. Heaven's Dead
7. The Worm
8. Man Or Animal
9. Yesterday To Tommorrow
10. Dandelion
11. #1 Zero
12. The Curse

--------------------------------------------------------------------------------------
All Songs written by Chris Cornell; Audioslave
--------------------------------------------------------------------------------------
Label: Sony
Year: 2005
--------------------------------------------------------------------------------------
For Additional Information, Tour Date and Merchandise, visit:

               //http:www.audioslave.com
--------------------------------------------------------------------------------------

****************
Guitar Legend
****************

| h - Hammer On
| p - Pull Off
| H - Harmonic 
| P.H. - Pinch Harmonic
| H.H. - Harp Harmonic
| tr~~ - Trill
| ~ - Vibrato
| / - Slide Into
|  - Slide Out Of
| b - Bend - (1/4): Fourth-Bend  (1/2): Half-Bend (1): Full-Bend   , ect.
| r - Bend Release
| bh - Bend Hold
| pb - Pre-Bend
| pbr - Pre-Bend Release
| ( ) - Ghost Note
| P.M. - Palm-Muted

======================================================================================
1. Your Time Has Come
======================================================================================

WRONG TABS ALL OVER THE PLACE!!! AHH i decided to fix this thing up....so send me the
corrections, if any, to creepingdeath1125@yahoo.com


Intro
e|------------------------------------------------------------------|
b|-------------------------------------------------8----------------|
g|-9-7-9-7-9-7-------------------------------7-7-9---9-7-7----------|
d|-------------9-7-9-7-9-7-9-7------5-7--7-9----------------9-7-7-5|
a|-----------------------------10-7---------------------------------|
E|------------------------------------------------------------------|

Main Riff/Verses
e|---------------------------------|
b|---------------------------------|
g|---------------------------------|
d|---------------------------------|
a|--7-5------------/7-5------------|
E|------7-5-3-0---------7-5-3-0-5--|

Main riff x3
Verse 1   x8

Chorus 1 
e|---------------|-----------|
b|---------------|-----------|
g|-----7---------|-----7-----|
d|-5---7---7---2-|-5---7---7-|
a|-5---5---7---2-|-5---5---7-|
E|-3-------5---0-|-3-------5-|

Main riff x2
Verse 2   x8

Chorus 2    [x3]       [..4th time]
e|---------------|   |-----------|
b|---------------|   |-----------|
g|-----7---------|   |-----7-----|
d|-5---7---7---2-|   |-5---7---7-|
a|-5---5---7---2-|   |-5---5---7-|
E|-3-------5---0-|   |-3-------5-|

Main riff x2


Solo- Basic Tom Morello stuff: hammer ons, delays, and toggle switch stuff. its usually
in Penatonic soloing, so improvise on that...

Main Riff x4

Riff 2 (low part) x3
e|-------------------|  |------------------|
b|-------------------|  |------------------|
g|-------------------|  |-----7-7--7-7-7-7-|
d|-------------------|  |-----7-7--7-7-7-7-|
a|-----5-------------|  |-----5-5--5-5-5-5-|
E|-0-3----5---3-3--0-|  |-0-3--------------|

Chorus 2- 3rd and 4th time through chorus, play these harmonics





e|----*-------------|  
b|----7-*-----------|
g|------7-------*---|
d|--------------7-*-|
a|----------------7-|
E|------------------| X2

Ending
e|---------------------------------|
b|---------------------------------|
g|---------------------------------|
d|---------------------------------|
a|--7-5------------/7-5------------| 
E|------7-5-3-0---------7-5-3-0-5--|X3 
 
e|------------------------------------|
b|------------------------------------|
g|------------------------------------|
d|---------------------------------2~~|
a|--7-5------------/7-5------------2~~|
E|------7-5-3-0---------7-5-3-0-5--0~~|

NOTE: This is just the tabs to this song. Improv. with this song as u learn it, because
thats what guitarists do: they IMPROVISE!  - Jo-Mama

======================================================================================
2. Out Of Exile
======================================================================================
Tabbed by: Bas
Email: b_vice@hotmail.com

I've now updated the tab with solo and a change in the main riff. It's now 100% complete... ENJOY!

Tuning: DADGBe

Intro

 Guitar 1
e|--------------------1------------------------------------------------------|
B|-----------1------3--------3-----------------------------------------------|
G|--2------2---------------4-------------------------------------------------| 2x
D|3--------------------------------------------------------------------------|
A|---------------------------------------------------------------------------|
D|---------------------------------------------------------------------------|

 Bass arranged for Guitar:
In the background of the intro there is also another sound. It sounds to me like
some muted strings with some wah, strummed in the rythm of the 
drums. It should be played something like this :

e|-----------------------------------------------------------------x-x-x-x-x-|
B|-------------------------------------------------x-x-x-x-x-x-x---x-x-x-x-x-|
G|--------------------------------------x-x-x-x-x--x-x-x-x-x-x-x---x-x-x-x-x-|
D|----------------------x-x----x-x-x-x--x-x-x-x-x--x-x-x-x-x-x-x---x-x-x-x-x-|
A|x-x-x-x----x-x-x-x-x--x-x----x-x-x-x--x-x-x-x-x--x-x-x-x-x-x-x---x-x-x-x-x-|
D|x-x-x-x----x-x-x-x-x--x-x----x-x-x-x--x-x-x-x-x--x-x-x-x-x-x-x---x-x-x-x-x-|
 [While playing, move your muting hand upwards in the direction of the pickups]

e|--x-x---x-x-x-x--x-x-x-x-x---x-x-x-x---------------------------------------|
B|--x-x---x-x-x-x--x-x-x-x-x---x-x-x-x---------------------------------------|
G|--x-x---x-x-x-x--x-x-x-x-x---x-x-x-x---------------------------------------|
D|--x-x---x-x-x-x--x-x-x-x-x---x-x-x-x---------------------------------------|
A|--x-x---x-x-x-x--x-x-x-x-x---x-x-x-x---------------------------------------|
D|--x-x---x-x-x-x--x-x-x-x-x---x-x-x-x---------------------------------------|
 [While playing, move your muting hand upwards in the direction of the pickups]

e|-----------------------------------------------------------------x-x-x-x-x-|
B|-------------------------------------------------x-x-x-x-x-x-x---x-x-x-x-x-|
G|--------------------------------------x-x-x-x-x--x-x-x-x-x-x-x---x-x-x-x-x-|
D|----------------------x-x----x-x-x-x--x-x-x-x-x--x-x-x-x-x-x-x---x-x-x-x-x-|
A|x-x-x-x----x-x-x-x-x--x-x----x-x-x-x--x-x-x-x-x--x-x-x-x-x-x-x---x-x-x-x-x-|
D|x-x-x-x----x-x-x-x-x--x-x----x-x-x-x--x-x-x-x-x--x-x-x-x-x-x-x---x-x-x-x-x-|
 [While playing, move your muting hand upwards in the direction of the pickups]

e|--x-x---x-x-x-x--x-x-x-x-x---x-x-x-x---------------------------------------|
B|--x-x---x-x-x-x--x-x-x-x-x---x-x-x-x---------------------------------------|
G|--x-x---x-x-x-x--x-x-x-x-x---x-x-x-x---------------------------------------|
D|--x-x---x-x-x-x--x-x-x-x-x---x-x-x-x---------------------------------------|
A|--x-x---x-x-x-x--x-x-x-x-x---x-x-x-x---------------------------------------|
D|--x-x---x-x-x-x--x-x-x-x-x---x-x-x-x---------------------------------------|
 [While playing, move your muting hand upwards in the direction of the pickups]

         *    **






e|------------------------------------------------[------]-[-1-]-------------|
B|------------------------------------------------[------]-[-1-]-------------|
G|------------------------------------------------[------]-[-0-]-------------| 4x
D|---------------------3--------------------------[------]-[-0-]-------------|
A|12--3h5-5-5--xx---------3---3p0-3-5------------[-/12-]-[---]-------------|
D|12-----------xx-3----3---5----------0-3-5-7-0--[-/12-]-[---]-------------|
*  = play 2nd time
** = play 3rd time


Verse

e|---------------------------------------------------------------------------|
B|-3...(14x)--10...(14x)--8...(14x)--6...(14x)--5-5-5-5----------------------|
G|---------------------------------------------------------------------------| 3x
D|---------------------------------------------------------------------------|
A|---------------------------------------------------------------------------|
D|---------------------------------------------------------------------------|

then:
e|---------------------------------------------------------------------------|
B|-3...(14x)--10...(14x)--8...(14x)--3...(10x)-------------------------------|
G|---------------------------------------------------------------------------| 1x
D|---------------------------------------------------------------------------|
A|---------------------------------------------------------------------------|
D|---------------------------------------------------------------------------|

Chorus

e|---------------------------------------------------------------------------|
B|---------------------------------------------------------------------------|
G|---------------------------------------------------------------------------|
D|---------------------3-----------------------------------------------------|
A|12--3h5-5-5--xx--------3--3p0-3-5--------------15------------------------|
D|12-----------xx-3----3--5-----------0-3-5-7-0--15------------------------|

e|---------------------------------------------------------------------------|
B|---------------------------------------------------------------------------|
G|---------------------------------------------------------------------------|
D|------------------3-------x-x-x--x---x-x-x--------------------3------------|
A|--3h5-5-5--xx---------3---x-x-x--x---x-x-x----------------3-5--------------|
D|-----------xx-3----3---5--x-x-x--x---x-x-x--------0-3-5-7------------------|

e|---------------------------------------------------------------------------|
B|---------------------------------------------------------------------------|
G|---------------------------------------------------------------------------|
D|---------------------3-----------------------------------------------------|
A|12--3h5-5-5--xx--------3--3p0-3-5--------------15------------------------|
D|12-----------xx-3----3--5-----------0-3-5-7-0--15------------------------|

e|---------------------------------------------------------------------------|
B|---------------------------------------------------------------------------|
G|---------------------------------------------------------------------------|
D|------------------3-------x-x-x--x---x-x-x--------------------3------------|
A|--3h5-5-5--xx---------3---x-x-x--x---x-x-x----------------3-5--------------|
D|-----------xx-3----3---5--x-x-x--x---x-x-x--------0-3-5-7------------------|


Verse

e|---------------------------------------------------------------------------|
B|-3...(14x)--10...(14x)--8...(14x)--6...(14x)--5-5-5-5----------------------|
G|---------------------------------------------------------------------------| 3x
D|---------------------------------------------------------------------------|
A|---------------------------------------------------------------------------|
D|---------------------------------------------------------------------------|

then:
e|---------------------------------------------------------------------------|
B|-3...(14x)--10...(14x)--8...(14x)--3...(10x)-------------------------------|
G|---------------------------------------------------------------------------| 1x
D|---------------------------------------------------------------------------|
A|---------------------------------------------------------------------------|
D|---------------------------------------------------------------------------|




Chorus

e|---------------------------------------------------------------------------|
B|---------------------------------------------------------------------------|
G|---------------------------------------------------------------------------|
D|---------------------3-----------------------------------------------------|
A|12--3h5-5-5--xx--------3--3p0-3-5--------------15------------------------|
D|12-----------xx-3----3--5-----------0-3-5-7-0--15------------------------|

e|---------------------------------------------------------------------------|
B|---------------------------------------------------------------------------|
G|---------------------------------------------------------------------------|
D|------------------3-------x-x-x--x---x-x-x--------------------3------------|
A|--3h5-5-5--xx---------3---x-x-x--x---x-x-x----------------3-5--------------|
D|-----------xx-3----3---5--x-x-x--x---x-x-x--------0-3-5-7------------------|

e|---------------------------------------------------------------------------|
B|---------------------------------------------------------------------------|
G|---------------------------------------------------------------------------|
D|---------------------3-----------------------------------------------------|
A|12--3h5-5-5--xx--------3--3p0-3-5--------------15------------------------|
D|12-----------xx-3----3--5-----------0-3-5-7-0--15------------------------|

e|---------------------------------------------------------------------------|
B|---------------------------------------------------------------------------|
G|---------------------------------------------------------------------------|
D|------------------3-------x-x-x--x---x-x-x--------------------3------------|
A|--3h5-5-5--xx---------3---x-x-x--x---x-x-x----------------3-5--------------|
D|-----------xx-3----3---5--x-x-x--x---x-x-x--------0-3-5-7------------------|


Verse

e|---------------------------------------------------------------------------|
B|-3...(14x)--10...(14x)--8...(14x)--6...(14x)--5-5-5-5----------------------|
G|---------------------------------------------------------------------------| 3x
D|---------------------------------------------------------------------------|
A|---------------------------------------------------------------------------|
D|---------------------------------------------------------------------------|

then:
e|---------------------------------------------------------------------------|
B|-3...(14x)--10...(14x)--8...(14x)--3...(10x)-------------------------------|
G|---------------------------------------------------------------------------| 1x
D|---------------------------------------------------------------------------|
A|---------------------------------------------------------------------------|
D|---------------------------------------------------------------------------|


Chorus

e|---------------------------------------------------------------------------|
B|---------------------------------------------------------------------------|
G|---------------------------------------------------------------------------|
D|---------------------3-----------------------------------------------------|
A|12--3h5-5-5--xx--------3--3p0-3-5--------------15------------------------|
D|12-----------xx-3----3--5-----------0-3-5-7-0--15------------------------|

e|---------------------------------------------------------------------------|
B|---------------------------------------------------------------------------|
G|---------------------------------------------------------------------------|
D|------------------3-------x-x-x--x---x-x-x--------------------3------------|
A|--3h5-5-5--xx---------3---x-x-x--x---x-x-x----------------3-5--------------|
D|-----------xx-3----3---5--x-x-x--x---x-x-x--------0-3-5-7------------------|

e|---------------------------------------------------------------------------|
B|---------------------------------------------------------------------------|
G|---------------------------------------------------------------------------|
D|---------------------3-----------------------------------------------------|
A|12--3h5-5-5--xx--------3--3p0-3-5--------------15------------------------|
D|12-----------xx-3----3--5-----------0-3-5-7-0--15------------------------|



e|---------------------------------------------------------------------------|
B|---------------------------------------------------------------------------|
G|---------------------------------------------------------------------------|
D|------------------3-------x-x-x--x---x-x-x--------------------3------------|
A|--3h5-5-5--xx---------3---x-x-x--x---x-x-x----------------3-5--------------|
D|-----------xx-3----3---5--x-x-x--x---x-x-x--------0-3-5-7------------------|


Breakdown

Guitar 1
e|--------------------1------------------------------------------------------|
B|-----------1------3--------3-----------------------------------------------|
G|--2------2---------------4-------------------------------------------------| 2x
D|3--------------------------------------------------------------------------|
A|---------------------------------------------------------------------------|
D|---------------------------------------------------------------------------|

Guitar 2

Same as the intro (again with those effects and stuff...):
e|-----------------------------------------------------------------x-x-x-x-x-|
B|-------------------------------------------------x-x-x-x-x-x-x---x-x-x-x-x-|
G|--------------------------------------x-x-x-x-x--x-x-x-x-x-x-x---x-x-x-x-x-|
D|----------------------x-x----x-x-x-x--x-x-x-x-x--x-x-x-x-x-x-x---x-x-x-x-x-|
A|x-x-x-x----x-x-x-x-x--x-x----x-x-x-x--x-x-x-x-x--x-x-x-x-x-x-x---x-x-x-x-x-|
D|x-x-x-x----x-x-x-x-x--x-x----x-x-x-x--x-x-x-x-x--x-x-x-x-x-x-x---x-x-x-x-x-|
 [While playing, move your muting hand upwards in the direction of the pickups]

e|--x-x---x-x-x-x--x-x-x-x-x---x-x-x-x---------------------------------------|
B|--x-x---x-x-x-x--x-x-x-x-x---x-x-x-x---------------------------------------|
G|--x-x---x-x-x-x--x-x-x-x-x---x-x-x-x---------------------------------------|
D|--x-x---x-x-x-x--x-x-x-x-x---x-x-x-x---------------------------------------|
A|--x-x---x-x-x-x--x-x-x-x-x---x-x-x-x---------------------------------------|
D|--x-x---x-x-x-x--x-x-x-x-x---x-x-x-x---------------------------------------|
 [While playing, move your muting hand upwards in the direction of the pickups]

e|-----------------------------------------------------------------x-x-x-x-x-|
B|-------------------------------------------------x-x-x-x-x-x-x---x-x-x-x-x-|
G|--------------------------------------x-x-x-x-x--x-x-x-x-x-x-x---x-x-x-x-x-|
D|----------------------x-x----x-x-x-x--x-x-x-x-x--x-x-x-x-x-x-x---x-x-x-x-x-|
A|x-x-x-x----x-x-x-x-x--x-x----x-x-x-x--x-x-x-x-x--x-x-x-x-x-x-x---x-x-x-x-x-|
D|x-x-x-x----x-x-x-x-x--x-x----x-x-x-x--x-x-x-x-x--x-x-x-x-x-x-x---x-x-x-x-x-|
 [While playing, move your muting hand upwards in the direction of the pickups]

e|--x-x---x-x-x-x--x-x-x-x-x---x-x-x-x---------------------------------------|
B|--x-x---x-x-x-x--x-x-x-x-x---x-x-x-x---------------------------------------|
G|--x-x---x-x-x-x--x-x-x-x-x---x-x-x-x---------------------------------------|
D|--x-x---x-x-x-x--x-x-x-x-x---x-x-x-x---------------------------------------|
A|--x-x---x-x-x-x--x-x-x-x-x---x-x-x-x---------------------------------------|
D|--x-x---x-x-x-x--x-x-x-x-x---x-x-x-x---------------------------------------|
 [While playing, move your muting hand upwards in the direction of the pickups]

Chorus

e|---------------------------------------------------------------------------|
B|---------------------------------------------------------------------------|
G|---------------------------------------------------------------------------|
D|---------------------3-----------------------------------------------------|
A|12--3h5-5-5--xx--------3--3p0-3-5--------------15------------------------|
D|12-----------xx-3----3--5-----------0-3-5-7-0--15------------------------|

e|---------------------------------------------------------------------------|
B|---------------------------------------------------------------------------|
G|---------------------------------------------------------------------------|
D|------------------3-------x-x-x--x---x-x-x--------------------3------------|
A|--3h5-5-5--xx---------3---x-x-x--x---x-x-x----------------3-5--------------|
D|-----------xx-3----3---5--x-x-x--x---x-x-x--------0-3-5-7------------------|

e|---------------------------------------------------------------------------|
B|---------------------------------------------------------------------------|
G|---------------------------------------------------------------------------|
D|---------------------3-----------------------------------------------------|
A|12--3h5-5-5--xx--------3--3p0-3-5--------------15------------------------|
D|12-----------xx-3----3--5-----------0-3-5-7-0--15------------------------|

e|---------------------------------------------------------------------------|
B|---------------------------------------------------------------------------|
G|---------------------------------------------------------------------------|
D|------------------3-------x-x-x--x---x-x-x--------------------3------------|
A|--3h5-5-5--xx---------3---x-x-x--x---x-x-x----------------3-5--------------|
D|-----------xx-3----3---5--x-x-x--x---x-x-x--------0-3-5-7------------------|


Outro
e|--------------------------[--------------------------]-----------------------|
B|--------------------------[--------------------------]-----------------------|
G|--------------------------[--------------------------]-----------------------|
D|------------------3-------[x-x-x-x-x---x-x-x-x-x--x-x]-----------------------|
A|--3h5-5-5--xx---------3---[x-x-x-x-x---x-x-x-x-x--x-x]-----------------------|
D|-----------xx-3----3---5--[x-x-x-x-x---x-x-x-x-x--x-x]-----------------------|
    [ Repeat 4 times...       ]
| /  slide up
|   slide down
| h  hammer-on
| p  pull-off
| ~  vibrato
| +  harmonic
| x  Mute note
|


please mail any comments or corrections to b_vice@hotmail.com

======================================================================================
3. Be Yourself
======================================================================================
Tabbed by: Dave Carlson
Version: 2
Email: carlson-online@freeola.net


This is the new Single of the soon to be released second album!
Capo on 2nd fret

Intro:


    Bm
e|--0--------------0---||--0--------------0---||
B|--1--1h2p1------0----||--1--1h2p1------0----||
G|--2------------2-----||--2------------2-----||
D|--2-----------2------||--2-----------2------||
A|--0----------0-------||--0----------0-------||
E|------------1--------||------------1--------||

Main Riff

e|----------------------------------------------------|
B|-12-------10---10/14--15---17/14--14--15--/-10--12--|
G|-------11-------------------------------------------|
D|----------------------------------------------------|
A|----------------------------------------------------|
E|----------------------------------------------------|

e|----------------------------------------------------|
B|-----------10--10/14--15---1410--10------14--/-12--|
G|-------11------------------------------11-----------|
D|----------------------------------------------------|
A|----------------------------------------------------|
E|----------------------------------------------------|

Pre Chorus:
e|-5-|
B|-5-|
G|-7-|
D|-7-|
A|-5-|
E|-5-| x8


Chorus:

   Bm    D    G    Esus2
e|--0----0---------0---|
B|--1----1---------3---|
G|--2----0----2----2---|
D|--2----2----3----0---|
A|--0----3----3--------|
E|------------1--------| x2


2nd Verse
2nd Chorus


Solo:

Wah Wah effect turned up high for this!

e|-------------------------------------------------------------------------------------|
B|-------------------------------------------------------------------------------------|
G|-------------------------------------------------------------------------------------|
D|-------------------------------------------------------------------------------------|
A|-------------------------------------------------------------------------------------|
E|--5-7-8-10-12-10-8-7--5-7-8-10-9-7-5-3--5-7-8-10-12-13-12-13-15-13-12-10-12-12-12-12-|

e|-------------------------------------------------------------------------------------------|
B|--------------------------------------------------------------------------10---------------|
G|---------------------------------------------------------------------9-11----11-9----------|
D|--7h9-9-9-9-12p9-9-9---7h9-9-9-9-12p9-9-9---7h9-9-9-9-12p9-9-9----12--------------12-9-----|
A|-------------------------------------------------------------------------------------------|
E|-------------------------------------------------------------------------------------------|

e|-------------------------------------------------------------------------------------------|
B|-------------------------------------------------------------------------------------------|
G|------------7h9-9-9-----------7h9-9-9----10b11-9~-10b11-9~-10b11-9-7-9-7-------------------|
D|--7h9-9-9-9---------7h9-9-9-9--------------------------------------------9-7-9-------------|
A|-------------------------------------------------------------------------------------------|
E|-------------------------------------------------------------------------------------------|


Bridge: 

    G          A          Bm         F    E    D    Bm
e|-------1----------3----------5--------------------------|
B|------1----------3----------5---------------------------|
G|-----2----------4----------5-------9----7----5----2-----|
D|----3----------5----------7--------9----7----5----2-----|
A|---3----------5----------7---------7----5----3----0-----|
E|--1----------3----------5-------------------------------|  x3


Pre Chorus x2
3rd Chorus with solo playing in the background


End on:
e|-1-|
B|-1-|
G|-2-|
D|-3-|
A|-3-|
E|-1-|

======================================================================================
4. Doesn't Remind Me
======================================================================================
Tabbed by: bas
Email: b_vice@hotmail.com


| /  slide up
|   slide down
| h  hammer-on
| p  pull-off
| ~  vibrato
| +  harmonic
| x  Mute note
| b  Bend up
| r  Release bend
|(t)sb(r) (Tremolo pick) Slow Bend (release)
| t  Tremolo Picking


Tuning: EADGBe


Intro/Verse

Chords:

E A E
 
Strum the E chord like this: down, up, down, up, up, down, up,
And the A chord like this  : down, up, down,
And the E chord after the A: up, up, down, up.

NOTE: with the first down strokes from the E chord play only the E (E|-0----0-----0-etc.)
and with the upstrokes don't play that E


Chorus:

Chords: E D A E

or

e|---------------------------------------------------------------------------|
B|---------------------------------------------------------------------------|
G|-------7--7----------------------------------------------------------------|
D|2--2---7--7---7-7---2--2-2-------------------------------------------------|
A|2--2---5--5---7-7---2--2-2-------------------------------------------------|
E|0--0----------5-5---0--0-0-------------------------------------------------|



Verse

Chords:

E A E (Strummed same as Intro/Verse)



Chorus:

Chords: E D A E

or

e|---------------------------------------------------------------------------|
B|---------------------------------------------------------------------------|
G|-------7--7----------------------------------------------------------------|
D|2--2---7--7---7-7---2--2-2-------------------------------------------------|
A|2--2---5--5---7-7---2--2-2-------------------------------------------------|
E|0--0----------5-5---0--0-0-------------------------------------------------|



Bridge

Chords: Dm   C    A Am    G E



Solo

I'm not sure if the delay is on in the whole solo, or only in the part with the
wah wah...

e|---------------------------------------------------------------------------|
B|--------------------------------------------------------12br---------------|
G|-14b-14b-14b-14b-14b-14-12-14-14b-14p12--------------12-12br----------12---|
D|----------------------------------------14-12-14--14---------14-12-14------|
A|---------------------------------------------------------------------------|
E|---------------------------------------------------------------------------|

e|------------------------------12br-----------17sbr-------------------------|
B|-------12br----------------12-12br-/14-15-17-17sbr-17p15----17-------------|
G|-------12br----------12-14-------------------------------16----------------|
D|-14-12------14-12-14-------------------------------------------------------|
A|---------------------------------------------------------------------------|
E|---------------------------------------------------------------------------|

e|-15----------------------------15----------------15------------------------|
B|-------15----15----14----15----------15----14----------14----15----15----15|
G|----12----12----12----12----12----12----12----12----12----12----12----12---|
D|---------------------------------------------------------------------------|
A|---------------------------------------------------------------------------|
E|---------------------------------------------------------------------------|
                       [ Wah on!                                             
e|-12-15-12--15-15-17b-----15----------15----------15------------------------|
B|-------------------------------15----------15----------15-15tsb-----------|
G|----------------------12----12----12----12----12----12---------------------|
D|---------------------------------------------------------------------------|
A|---------------------------------------------------------------------------|
E|---------------------------------------------------------------------------|

e|------------------------15-------------------------------15-15-17b-17-15|
B|-17--17-15-17--17-15-17----17-15-17--17-17--17--17-15-17----------------|
G|------------------------------------------------------------------------|
D|------------------------------------------------------------------------|
A|------------------------------------------------------------------------|
E|------------------------------------------------------------------------|

e|-17b-17b-17-15-17-15-17------------------15-----15-15-17b-17-15-|
B|------------------------17-15-17--17--17----17------------------|
G|----------------------------------------------------------------|
D|----------------------------------------------------------------|
A|----------------------------------------------------------------|
E|----------------------------------------------------------------|
 
(I'm not 100% sure about this part, it's very fast and with the delay on, so
that's pretty confusing to me when tabbing it... it can be that he skips the second 17 15 14
17 15 14, I don't know, but you can always skip it if it's too long, or if you play it very
very fast you can just play it like this =P)







e|---17-15-14--------17-15-14--------15-14-12------------------12-14-15-14-12|
B|-17--------17-15-14--------17-15-14--------15-14-12--12-14-15--------------|
G|---------------------------------------------------14----------------------|
D|---------------------------------------------------------------------------|
A|---------------------------------------------------------------------------|
E|---------------------------------------------------------------------------|
                                                        Wah off!]
e|---------------------------------------------------------------------------|
B|-15-14-12------------------------------------------------------------------|
G|---------14-13-12---//t15--//t18-//t19-//t20-//t21-//t22-//t24-------------|
D|---------------------------------------------------------------------------|
A|---------------------------------------------------------------------------|
E|---------------------------------------------------------------------------|


Chorus:

Chords: E D A E

or

e|---------------------------------------------------------------------------|
B|---------------------------------------------------------------------------|
G|-------7--7----------------------------------------------------------------|
D|2--2---7--7---7-7---2--2-2-------------------------------------------------|
A|2--2---5--5---7-7---2--2-2-------------------------------------------------|
E|0--0----------5-5---0--0-0-------------------------------------------------|


Outro

E A E (strummed same as Intro/verse)


Please mail any comments, etc.

Greetings,

Bas

======================================================================================
5. Drown Me Slowly
======================================================================================

Info about me: 1st ever tab, got an acoustic, cant really understand some parts o the
song because of the electric guitar fator but I'll have a shot. Hardest bit for me to
understand was the verse riff. Getting an electric maybe next week =D (about that,
please e-mail me about getting an electric)

 The intro:

E ----0---0---0---0---0---0---0---0---0---0---0---0---0---0---0---0---0----|
B --5---5---5---5---5---5---5---5---3---3---3---3---3---3---3---3---1---1--|
G -------------------------------------------------------------------------|
D -------------------------------------------------------------------------|
A -------------------------------------------------------------------------|
e -------------------------------------------------------------------------|

                                      :1st ending:
E -0---0---0---0---0---0---0-(--0---0---0---0---0---0---0---0-)------------|
B ---1---1---1---1---1---1---(5---5---5---5---7---7---8---8---)------------|
G ---------------------------(--------------------------------)------------|
D ---------------------------(--------------------------------)------------|
A ---------------------------(--------------------------------)------------|
e ---------------------------(--------------------------------)------------|
           2nd ending cuts off before the 1st ending and goes straight to


Verse:
E -------------------------------------------------------------------------|
B -------------------------------------------------------------------------|
G -------------------------------------------------------------------------|
D -------------------------------------------------------------------------|
A ---5---5-7-------10-12-------5-5-7-------10-12-Let ring...---------------|
e ---3---3-5--------8-10-------3-3-5--------8-10-Let ring...---------------|

tricky bit for me. not you obviously...

Chorus:                    :1st + 2nd + 3rd ending:
E -----------------------------(------------)-----------------------------|
B -----------------------------(------------)-----------------------------|
G -----------------------------(------------)-----------------------------|
D -----------------5-----------(--2-0-------)-----------------------------|
A -----7p5------7p5------7p5---(------2-0---)-----------------------------|
e -0-0-----0--0------0-0-----0-(----------3-)-----------------------------|
4th time through let the open "e" ring on without adding on the little ending thingie.

Maybe on the :
D -2-0----------|
A -----2-0------|
e ---------3----|
bit you pull-off 2 on the "D" string and "A" string to an open string but I cant really
tell cuz I dont know the sustain on an electric...

The outro:
E-------------------------------------------------------------------------|
B-------------------------------------------------------------------------|
G-------------------------------------------------------------------------|
D-------------------------------------------------------------------------|
A----------------------------------------------------5--2--5--ring on 4th-|
e-0--0--0--0--12--0--0--0--0--12--0--0--0--0--12--3--0--3--ring on 4th-|


Maybe the "e" string 12th fret note is accompanied with a 14th fret note on the "A"
string? Tell me if you can

Now for the easy part...The order

Intro x2
Verse x1
Chorus x4
Verse x1
Chorus x4
Solo (wicky wicky string scratching beginning but I think its just improv..)
Intro x6 (6th is without the ending so finishing on the "c" note)
Chorus x4
Outro x4

Hey any corrections send em to Eternal_Humdinger@hotmail.com Have fun playing this song
I reckon its one of their best on tis new album

======================================================================================
6. Heaven's Dead
======================================================================================
Tabbed by:Matt

Sounds to me like the guitar is a les paul if you need to get
the same tone.


 / slide up
  slide down
 h ham-am-m-mer-on
 p p'ull'off
 b beeeend
 ~ do the finger vibe
 * harmonic
 x Mute note, but still play it (see: solo)

Tuning:Drop D

Intro to verses

e|---------------------------------------------------------------|
B|---------------------------------------------------------------|
G|---------------------------------------------------------------|
D|---------------------------------------------------------------|
A|9-9-9/10-10-107-7-7/9-9-95-5-5/7-7-72-4/5-5-5---------------|
D|-0-0----0--0----0-0---0-0---0-0---0-0--0----0-0----------------|

  Anchor the night....
  Pray for me not...

  Shipwreck the sun...
  Whisper your songs...

Bass guitar comes in at "Pray..."
I think he's walking the index & middle fingers if you want the 
right action, I'm not a bass player, but I thought I'd do this,
ofcourse it can be played in different positions namely on the
(normal)D & G strings instead.  Ive tried to add a sense of timing, 
not following any pattern, just lining up some of the notes with the
start of words:

G|--------|----------|----------------|----------|----------|------|-
D|--------|-------7--|----------------|----------|----------|------|-
A|55-55-55|5--5--5-5/|9-9-5555-5-5-55-|5--5--5---|/7--7-77--|2-2h4-|5
D|--------|----------|----------------|----------|----------|------|-
  Pray....|not.......|I...............|where...Be|-Long.and.|you...|lie.

Chorus:

Guitar: Note, it seems to sound better with the low D string muted until
the last chord and I mute the G string but I can't tell if Tom does this

e|0---------|0-------------|0-----------|0------------------------|
B|0---------|0-------------|0-----------|0------------------------|
G|X---------|X-------------|X-----------|X------------------------|
D|5---------|7-slide down--|3--let ring-|2--don't play this chord-|
A|5---------|7-------------|3-----------|2--when a verse is-------|
D|5---------|7-------------|3-----------|2--comming straight after|

  Heaven's..|see...........|out.........|had

Solo, 

Play the muted string to make the click you hear in the song
(I've updated this so it sounds smoother)
The part where it goes (7)b8b7, start with the "B" string on the 7th fret,
bent to the 8th fret note, then ease it back to the normal 7th note (A#),
do the same sort of thing where it goes (10)b11b10 - that is start with it
fretted on the 10th, bend to the 11th note and released back to 10

e|--10-10--------------------------------------------------------|
B|-X------10~let ring-(7)b8b7--------------------10--------------|
G|7------7-------------------7-9-(10)b11b10p9p7-7--7~let ring----|
D|---------------------------------------------9-----------------|
A|---------------------------------------------------------------|
D|---------------------------------------------------------------|

e|---------------------------------------------------------------|
B|10p8p7-8p7-7-8p7-----------*7*---------------------------------|
G|----------9-----9p7-----*7*---*7*----(*harmonics)--------------|
D|---------------------*7*---------------------------------------|
A|---------------------------------------------------------------|
D|---------------------------------------------------------------|

Now here's the good part, you can do this in a number of positions 
but here's the one I perfer because you can slide down all the way

e|---------------------------------------------------------------|
B|---------------------------------------------------------------|
G|11--9--7-6-2-^4-^6-2----------7(don't play this note going into chorus)
D|-X--X--X-X-0-^2-^4-0-------7h9------------------------------|
A|-9--7--5-4-0-^2-^4-0----------------------------------------|
D|-X--

Înscrie-te la newsletter


Like us on Facebook