Yesterday To Tomorrow Solo Tab - Audioslave






-------------------------------------------------------------------------------
                   Yesterday Comes Tommorow - Audioslave
-------------------------------------------------------------------------------
Tabbed by: Dave Carlson
Version: 1
Email: carlson-online@freeola.net


Solo:

e|------------------------------------------8p7-----|
B|-10-10-10-10p8---8-10---10-10-10-10p8---8-----10--|
G|---------------9----------------------9-----------|
D|--------------------------------------------------|
A|--------------------------------------------------|
E|--------------------------------------------------|

e|-------------------------10-8-7-10-8-7-10-8-7h8p7h8-----|
B|-10-10-10-10p8---8-10-------------------------------10--|
G|---------------9----------------------------------------|
D|--------------------------------------------------------|
A|--------------------------------------------------------|
E|--------------------------------------------------------|

e|-------------------------------12----10-----------------|
B|-10-10-10-10p8---8-10----10h12----12----13-12-13-10-----|
G|---------------9----------------------------------------|
D|--------------------------------------------------------|
A|--------------------------------------------------------|
E|--------------------------------------------------------|

e|---------15p13p12----------------------------------12--------------------|
B|-10-10p8----------15p13p12----------------12p13p15----15h13h12-----------|
G|---------------------------14-13-12-13-14----------------------14-12-14--|
D|-------------------------------------------------------------------------|
A|-------------------------------------------------------------------------|
E|-------------------------------------------------------------------------|

ĂŽnscrie-te la newsletter


Like us on Facebook