Hole In The Head Tab - Autopsy






-AUTOPSY - HOLE IN THE HEAD from the "Mental Funeral" CD (c) 1991 Vile Music
-Transcribed by Chris Myhre. Version 1.1 Feb 2000 (ver 1.0 Oct 97)
-For questions, corrections, etc email me: bowel_ripper@hotmail.com
-For best print edit the left/right margins in page setup to make the tab fit the sheet
-Tuning: two steps down (1:C, 2:G, 3:D#, 4:A#, 5:F, 6:C)
-Notation legend: / = slide up;  = slide down; ^ = semitone trill; p = pull-off;
 * = see note; x = mute string with left hand; h = hammer-on; ~ = vibrato; . = palmmute

   riff A   ________ __________
1>|gtr 1 & 2------------------------------------------------------|   1    |   2     x2
2>|-----------------------------------------------------------------------------------|
3>|------9--7--------------9--7--9--10--------9--7-----------7--9-----------10--------|
4>|---8--------9--8-----8------------------8--------9--8--9--------8------------------|
5>|7-----------------7------------------7---------------------------------------------|
6>|-----------------------------------------------------------------------------------|

   gtr 1    riff B1       riff C            gtr 2 harmonizes
  |-----x2--gtr 1 & 2-----------------------x4---------------------|one time through---x2
  |------|-----------------------------------|------------------------------------------|
  |repeat|------9----------------------------|10--11-10----10^-----10--11-10------------|
  |riff A|----8----9--8-------8h9--8---------|8---9--8--12-8^---12-8---9--8--12-11^--12-|
  |------|7---------------10----------10--9--|----------10------10-----------10-9^---10-|
  |------|-----------------------------------|------------------------------------------|
  |    ___ ___
  |gtr 2 x2   |1  |2  |
  |-------12--10-----------------12--10--12--13---------12--10--------------10--12------13-|
  |---11----------12--11-----11---------------------11----------12--11--12----------11-----|
  |9----------------------9----------------------9-----------------------------------------|
  |----------------------------------------------------------------------------------------|
  |----------------------------------------------------------------------------------------|
  |----------------------------------------------------------------------------------------|

  |-------12----------------------------------x4-----------------------------------------x2
  |----11-----12--11-------11h12--11-----------|11--12-11----11^-----11--12-11------------|
  |9-------------------12-------------12--11^--|----------12------12-----------12-11^--12-|
  |--------------------------------------------|------------------------------------------|
  |--------------------------------------------|------------------------------------------|
  |--------------------------------------------|------------------------------------------|
   _______________________ ____________________________
  |-----------------------|       1               |        2                  x2----------|
  |----------------------------------------------------------------------------'----------|
  |----------------------------------------------------------------------------'----------|
  |-----3-----------------------3-----------------------3----*---*-*---*-*---*-'-----3----|
  |2----1------------------2----1---------4--3-4p3-2----1----5---5-4---4-3---3-'2----1----|
  |0---------2----5--4-5p4-0---------3-------------0---------3---3-2---2-1---1-'0---------|
     * gtr 2 harmonizes
  _________ __________
  |gtr 1 x2----------|gtr 1 comes--------------------------------| 1,3,5   |  2,4    x5
  |gtr 2 x1----------|in 2nd time-----------------------------------------------------|
  |------------------|----------------------------------------------------------------|
  |------------------|----------------------------------------------------------------|
  |54------43------|-------------------4---4h5------------------------------1---1h2-|
  |32------21------|2222222232222223-2---2-----1111111121111112-1-4-1-4/5-1---1-----|

  |--------------------------------------------------------------x4---* 1st time play------x4
  |---------------------------------------------------------------|-----this chord only-----'
  |---------------------------------------------------------------|-------------------------'
  |---------------------------------------------------------------|---*---------------------'
  |4-4-4-4-54-4-4-4-4-4-4-54-54-3-3-3-3-43-3-3-3-3-3-3-43-43|4/54-----3^----2^----1^--'
  |2-2-2-2-32-2-2-2-2-2-2-32-32-1-1-1-1-21-1-1-1-1-1-1-21-21|2/32-4/5-----4-----3-----'
  (. . . .     . . . . . .         . . . .     . . . . . .)

ĂŽnscrie-te la newsletter


Like us on Facebook