A Little Piece Of Heaven Tab - Avenged Sevenfold






a7x for life

Not All completly Right, just somthing to model around. there isnt even alot of guitar 
this sont so what i have here is semi acurate.

D, A, D, G, B, e

14 seconds, ( however many times )

e--------------------------|
B--------------------------|
G--------------------------|
D--------------------------|
A--------------------------|
D-0-0-0-0-0-0-0-3-3-3-3-3--|
  * * * * * * * * * * * *

37 seconds
e-----------------------------------------------------------|
B-----------------------------------------------------------|
G-----------------------------------------------------------|
D-----------------------------------------------------------|
A-0-0--0-0--0-0--3-3--3-3--3-3--5-5--5-5--5-5--6-6--6-6--6-6|
D-0-0--0-0--0-0--3-3--3-3--3-3--5-5--5-5--5-5--6-6--6-6--6-6|

big guitar break.

1:36, 3:38, 6:30 seconds
e--------------------|
B--------------------|
G--------------------|  played 2 times
D--------------------|
A--------------------|
D-0-2-3-8-7-3-2-0-3-2|


4:52, each peice played twice
e-------|------|-------|------|
B-------|------|-------|------|
G-------|------|-------|------|
D-------|------|-------|------|
A-------|------|-------|------|
D-3-8-7-|-5-8-7|-2-8-7-|-0-8-7|


please dont s**t on me if im completly wrong.
atleast i gave it a try.

ĂŽnscrie-te la newsletter


Join the ranks ! LIKE us on Facebook