Walk Tab - Avenged Sevenfold






I Don't like Avenged Sevenfold personally (bar Beast and the Harlot)
But this is awesome
Intro:
E|---------------------|---------------------|
B|---------------------|---------------------|
G|---------------------|---------------------|
D|---------------------|---------------------|
A|-0--0-21-0--0-21-0-|--0-21-0---0-21-0--|
D|-0--0-21-0--0-21-0-|--0-21-0---0-21-0--|

E|---------------------|---------------------|
B|---------------------|---------------------|
G|---------------------|---------------------|
D|---------------------|---------------------|
A|---0-21-0--0-21-0--|--0-21-0---0-21-0--|
D|---0-21-0--0-21-0--|--0-21-0---0-21-0--|

E|---------------------|---------------------|
B|---------------------|---------------------|
G|---------------------|---------------------|
D|---------------------|---------------------|
A|-0-21-0--0-8--------|--0-21-0--0-6-------|
D|-0-21-0--0-8--------|--0-21-0--0-6-------|
   
     ^^^^Repeat^^^^ once

E|---------------------|-------------------------|
B|---------------------|-------------------------|
G|---------------------|-------------------------|
D|---------------------|-------------------------|
A|-0-21-0--0-4--------|-0-0-0-1-0-0-3-0-4-3-1-0-|
D|-0-21-0--0-4--------|-0-0-0-1-0-0-3-0-4-3-1-0-|

E|---------------------|---------------------|
B|---------------------|---------------------|
G|---------------------|---------------------|
D|---------------------|---------------------|
A|-0-21-0--0-8--------|--0-21-0--0-6-------|
D|-0-21-0--0-8--------|--0-21-0--0-6-------|

E|---------------------|-------------------------|
B|---------------------|-------------------------|
G|---------------------|-------------------------|
D|---------------------|-------------------------|
A|-0-21-0--0-4--------|-0-0-0-1-0-0-3-0-4-3-1-0-|
D|-0-21-0--0-4--------|-0-0-0-1-0-0-3-0-4-3-1-0-|

E|---------------------|---------------------|
B|---------------------|---------------------|
G|---------------------|---------------------|
D|---------------------|---------------------|
A|-0-21-0--0-8--------|--0-21-0--0-6-------|
D|-0-21-0--0-8--------|--0-21-0--0-6-------|

E|---------------------|
B|---------------------|
G|---------------------|
D|---------------------|
A|-0-21-0--0-4--------|
D|-0-21-0--0-4--------|



E|-------------------------|-------------------------|
B|-------------------------|-------------------------|
G|-------------------------|-------------------------|
D|-------------------------|-------------------------|
A|-0-0-0-1-0-0-3-0-4-3-1-0-|-0-0-0-1-0-0-3-0-4-3-1-0-|
E|-0-0-0-1-0-0-3-0-4-3-1-0-|-0-0-0-1-0-0-3-0-4-3-1-0-|

Verse:
Reapeat Throughout Verse
E|---------------------|---------------------|
B|---------------------|---------------------|
G|---------------------|---------------------|
D|---------------------|---------------------|
A|-0--0-21-0--0-21-0-|--0-21-0---0-21-0--|
D|-0--0-21-0--0-21-0-|--0-21-0---0-21-0--|

Cant you see Im easily bothered by persistence
One step from lashing out at you...
You want in to get under my skin
And call yourself a friend
Ive got more friends like you
What do I do? 

Is there no standard anymore? 
What it takes, who I am, where Ive been
Belong
You cant be something youre not
Be yourself, by yourself
Stay away from me
A lesson learned in life
Known from the dawn of time

  Chorus:

E|---------------------|---------------------|
B|---------------------|---------------------|
G|---------------------|---------------------|
D|---------------------|---------------------|
A|-0-21-0--0-8--------|--0-21-0--0-6-------|
D|-0-21-0--0-8--------|--0-21-0--0-6-------|
             Re.....................Spect

E|---------------------|
B|---------------------|
G|---------------------|
D|---------------------|
A|-0-21-0--0-4--------|
D|-0-21-0--0-4--------|
             Walk
 
E|-------------------------|
B|-------------------------|
G|-------------------------|
D|-------------------------|
A|-0-0-0-1-0-0-3-0-4-3-1-0-|
E|-0-0-0-1-0-0-3-0-4-3-1-0-|

        ^^^^Repeat^^^^ Chorus

  Verse II:
Run your mouth when Im not around
Its easy to achieve
You cry to weak friends that sympathize
Can you hear the violins playing you song? 
Those same friends tell me your every word

Is there no standard anymore? 
What it takes, who I am, where Ive been
Belong
You cant be something youre not
Be yourself, by yourself
Stay away from me
A lesson learned in life
Known from the dawn of time

 Chorus:
E|---------------------|---------------------|
B|---------------------|---------------------|
G|---------------------|---------------------|
D|---------------------|---------------------|
A|-0-21-0--0-8--------|--0-21-0--0-6-------|
D|-0-21-0--0-8--------|--0-21-0--0-6-------|
             Re.....................Spect

E|---------------------|
B|---------------------|
G|---------------------|
D|---------------------|
A|-0-21-0--0-4--------|
D|-0-21-0--0-4--------|
             Walk
 
E|-------------------------|
B|-------------------------|
G|-------------------------|
D|-------------------------|
A|-0-0-0-1-0-0-3-0-4-3-1-0-|
E|-0-0-0-1-0-0-3-0-4-3-1-0-|
     What did You say!

E|---------------------|---------------------|
B|---------------------|---------------------|
G|---------------------|---------------------|
D|---------------------|---------------------|
A|-0-21-0--0-8--------|--0-21-0--0-6-------|
D|-0-21-0--0-8--------|--0-21-0--0-6-------|
             Re.....................Spect

E|---------------------|
B|---------------------|
G|---------------------|
D|---------------------|
A|-0-21-0--0-4--------|
D|-0-21-0--0-4--------|
             Walk
 
E|-------------------------|
B|-------------------------|
G|-------------------------|
D|-------------------------|
A|-0-0-0-1-0-0-3-0-4-3-1-0-|
E|-0-0-0-1-0-0-3-0-4-3-1-0-|
    Are You Talking to Me!

E|---------------------|---------------------|
B|---------------------|---------------------|
G|---------------------|---------------------|
D|---------------------|---------------------|
A|-0-21-0--0-8--------|--0-21-0--0-6-------|
D|-0-21-0--0-8--------|--0-21-0--0-6-------|
             Re.....................Spect

E|---------------------|
B|---------------------|
G|---------------------|
D|---------------------|
A|-0-21-0--0-4--------|
D|-0-21-0--0-4--------|
             Walk
 
E|-------------------------|
B|-------------------------|
G|-------------------------|
D|-------------------------|
A|-0-0-0-1-0-0-3-0-4-3-1-0-|
E|-0-0-0-1-0-0-3-0-4-3-1-0-|
     What did You say!

E|---------------------|---------------------|
B|---------------------|---------------------|
G|---------------------|---------------------|
D|---------------------|---------------------|
A|-0-21-0--0-8--------|--0-21-0--0-6-------|
D|-0-21-0--0-8--------|--0-21-0--0-6-------|
             Re.....................Spect

E|---------------------|
B|---------------------|
G|---------------------|
D|---------------------|
A|-0-21-0--0-4--------|
D|-0-21-0--0-4--------|
             Walk
 
E|-------------------------|-------------------------|
B|-------------------------|-------------------------|
G|-------------------------|-------------------------|
D|-------------------------|-------------------------|
A|-0-0-0-1-0-0-3-0-4-3-1-0-|-0-0-0-1-0-0-3-0-4-3-1-0-|
E|-0-0-0-1-0-0-3-0-4-3-1-0-|-0-0-0-1-0-0-3-0-4-3-1-0-|
   Are You talking to me!     Are You talking to me!
   No Way PUNK!

   (I Havent Fuigerd Out the solo 
   yet but this is where it would be)


 Chorus:
E|---------------------|---------------------|
B|---------------------|---------------------|
G|---------------------|---------------------|
D|---------------------|---------------------|
A|-0-21-0--0-8--------|--0-21-0--0-6-------|
D|-0-21-0--0-8--------|--0-21-0--0-6-------|
             Re.....................Spect

E|---------------------|
B|---------------------|
G|---------------------|
D|---------------------|
A|-0-21-0--0-4--------|
D|-0-21-0--0-4--------|
             Walk
 
E|-------------------------|
B|-------------------------|
G|-------------------------|
D|-------------------------|
A|-0-0-0-1-0-0-3-0-4-3-1-0-|
E|-0-0-0-1-0-0-3-0-4-3-1-0-|
     What did You say!

E|---------------------|---------------------|
B|---------------------|---------------------|
G|---------------------|---------------------|
D|---------------------|---------------------|
A|-0-21-0--0-8--------|--0-21-0--0-6-------|
D|-0-21-0--0-8--------|--0-21-0--0-6-------|
             Re.....................Spect

E|---------------------|
B|---------------------|
G|---------------------|
D|---------------------|
A|-0-21-0--0-4--------|
D|-0-21-0--0-4--------|
             Walk
 
E|-------------------------|
B|-------------------------|
G|-------------------------|
D|-------------------------|
A|-0-0-0-1-0-0-3-0-4-3-1-0-|
E|-0-0-0-1-0-0-3-0-4-3-1-0-|
    Are You Talking to Me!

E|---------------------|---------------------|
B|---------------------|---------------------|
G|---------------------|---------------------|
D|---------------------|---------------------|
A|-0-21-0--0-8--------|--0-21-0--0-6-------|
D|-0-21-0--0-8--------|--0-21-0--0-6-------|
             Re.....................Spect

E|---------------------|
B|---------------------|
G|---------------------|
D|---------------------|
A|-0-21-0--0-4--------|
D|-0-21-0--0-4--------|
             Walk
 
E|-------------------------|
B|-------------------------|
G|-------------------------|
D|-------------------------|
A|-0-0-0-1-0-0-3-0-4-3-1-0-|
E|-0-0-0-1-0-0-3-0-4-3-1-0-|
     What did You say!

E|---------------------|---------------------|
B|---------------------|---------------------|
G|---------------------|---------------------|
D|---------------------|---------------------|
A|-0-21-0--0-8--------|--0-21-0--0-6-------|
D|-0-21-0--0-8--------|--0-21-0--0-6-------|
             Re.....................Spect

E|---------------------|
B|---------------------|
G|---------------------|
D|---------------------|
A|-0-21-0--0-4--------|
D|-0-21-0--0-4--------|
             Walk

E|-------------------------|-------------------------|
B|-------------------------|-------------------------|
G|-------------------------|-------------------------|
D|-------------------------|-------------------------|
A|-0-0-0-1-0-0-3-0-4-3-1-0-|-0-0-0-1-0-0-3-0-4-3-1-0-|
E|-0-0-0-1-0-0-3-0-4-3-1-0-|-0-0-0-1-0-0-3-0-4-3-1-0-|
   Are You talking to me!     Are You talking to me!
    Walk on Home Boy

  Keep repeating this part and fade it out to end the song.
E|-------------------------|-------------------------|
B|-------------------------|-------------------------|
G|-------------------------|-------------------------|
D|-------------------------|-------------------------|
A|-0-0-0-1-0-0-3-0-4-3-1-0-|-0-0-0-1-0-0-3-0-4-3-1-0-|
E|-0-0-0-1-0-0-3-0-4-3-1-0-|-0-0-0-1-0-0-3-0-4-3-1-0-|

E|-------------------------|-------------------------|
B|-------------------------|-------------------------|
G|-------------------------|-------------------------|
D|-------------------------|-------------------------|
A|-0-0-0-1-0-0-3-0-4-3-1-0-|-0-0-0-1-0-0-3-0-4-3-1-0-|
E|-0-0-0-1-0-0-3-0-4-3-1-0-|-0-0-0-1-0-0-3-0-4-3-1-0-|


ĂŽnscrie-te la newsletter


Join the ranks ! LIKE us on Facebook