Carousel Bass Tab - Axel Rudi Pell






* above notes means that notes are to be repeated

Intro 1 (Played by guitar only but you can play along if you wish):

G:-----------------------------|----------------------------3--|
D:-----------------------------|-------------------------------|
A:--7---5---7---2---3---5---7--|--7---5---7---2---3---5--------|
E:-----------------------------|--------------------------5----|

Intro 2: x2

G:--------------------------------------------|
D:--------------------------------------------|
A:--7---5---7---2---3---5---7-----------------|
E:-----------------------------7-7-7-7-7-7-7-7|

G:----------------------------3---------------|
D:--------------------------------------------|
A:--7---5---7---2---3---5---------------------|
E:--------------------------5-----------------|

Verse:

G:------*----------|------*-----------*--*--|
D:--*---6---*---*--|--*---6---*---*---6--5--|
A:--7-------5---3--|--7-------5---3---------|
E:-----------------|------------------------|

G:------*----------|------*-----------------|
D:--*---6---*---*--|--*---6---*---*---------|
A:--7-------5---3--|--7-------5---3---------|
E:-----------------|------------------------|

Pre-Chorus:

G:-------------------------|-----------------------------3-----|
D:--*--10---9---7---*---*--|--*--10---9---7---*---*----*-------|
A:--7---------------7---3--|--7---------------7---3----5-------|
E:-------------------------|-----------------------------------|

Chorus: x4

G:--------------------------------------------|
D:--------------------------------------------|
A:--7---5---7---2---3---5---7-----------------|
E:-----------------------------7-7-7-7-7-7-7-7|

G:----------------------------3---------------|
D:--------------------------------------------|
A:--7---5---7---2---3---5---------------------|
E:--------------------------5-----------------|


Verse

Pre-Chorus

Chorus: x2

Pre-Bridge:

G:----3---------------------------------------|
D:--------------------------------------------|
A:-------------7------------------------------|
E:--5-----------------------------------------|

Rest

Bridge 2: x4

G:---------------------------------------------------------------|
D:---------------------------------------------------------------|
A:-7-7-7-7-7-7-7-7-7-7-7-7-7-7-7-7-7-7-7-7-7-7-7-7-7-7-7-7--9--9-|
E:---------------------------------------------------------------|

bridge 2: x4

G:-------------------------------------|
D:--*----------------------------------|
A:--2------------------5---4---2---3---|
E:-------------------------------------|

Solo 1: x2

G:----------------------------------------------|
D:----------------------------------------------|
A:--7---5---7---2---3---5---7-------------------|
E:-----------------------------7-7-7-7-7-7-7-7--|

G:----------------------------3-----------------|
D:----------------------------------------------|
A:--7---5---7---2---3---5-----------------------|
E:--------------------------5-------------------|

Solo 2: x3

G:-----------------------------|----------------------------3--|
D:-----------------------------|-------------------------------|
A:--7---5---7---2---3---5---7--|--7---5---7---2---3---5--------|
E:-----------------------------|--------------------------5----|

Chorus: Reapeat Until End






Like us on Facebook