Dysfunctional Professional Tab - Backyard Babies




Song: Dysfunctional Professional
Band: Backyard Babies

Tabbed by Chocolate--

Intro

Chords:
|-----------------------------| 2x
|-----------------------------|
|---6-5-8---8-10-6---6-5------|
|-6-6-5-8---8-10-6---6-5-6----|
|-6-4-3-6---6-8--4---4-3-6----|
|-4----------------------4----|

Guitar 2 (second time)
Strum each several times
|-----------------------------|
|-----------------------------|
|---6-5-8---8-10-6---6-5------|
|-6----------------------6----|
|-----------------------------|
|-----------------------------|

Verse

Guitar 1
Strum chords several times
|-------|--------|
|-------|--------|
|-6-----|-6-5-8--|
|-6-6---|-6-5-8--|
|-4-6---|-4-3-6--|
|---4---|--------|

Guitar 2
At the first part stop with your hand after each chord
|-------|--------|
|-------|--------|
|-6-----|-6-5-8--|
|-6-6---|-6-5-8--|
|-4-6---|-4-3-6--|
|---4---|--------|

Pre-chorus:

|----------------------------|
|----------------------------|
|-8-10-8-2x--6-5-------------|
|-8-10-8-----6-5-6-----------|
|-6-8--6-----4-3-6-----------|
|----------------4-pickslide-|

Guitar 2 (at the end)

|--------------|
|--------------|
|--------------|
|-5h666-5h666--|
|--------------|
|--------------|

Chorus: (same as first part of the intro)

Verse

Pre-chorus

Chorus : 2x

Bridge:

Guitar 1
|---------------|
|---------------|
|-6-5-----------|
|-6-5-6---------|
|-4-3-6---------|
|-----4---------|

Guitar 2

|----------|
|----------|
|-6-5------|
|-----6----|
|----------|
|----------|

Both Guitars

|-------------------|
|-------------------|
|-------------------|
|-4-6-56-56-56---|
|-4-6-34-34-34---|
|-2-4---------------|

Repeat chorus, intro chords

Chorus

ĂŽnscrie-te la newsletter


Join the ranks ! LIKE us on Facebook