Look At You Tab - Backyard Babies




Artist: Backyard Babies 
Title: Look at you 
Taken from: Total 13 
Tabbed by: Unknown 


1,2,3,4 

   D  A  D  A  D  A  D  A 
E|-------------------------| 
B|-------------------------| 
G|-7-----7-----7-----7-----| 
D|-7--7--7--7--7--7--7--7--| 
A|-5--7--5--7--5--7--5--7--| 
E|----5-----5-----5-----5--| 

   A  E  A  E  A  E  A  E  A  E  A  E 
E|------------------------------------| 
B|------------------------------------| 
G|------------------------------------| 
D|-7--2--7--2--7--2--7--2--7--2--7--2-| 
A|-7--2--7--2--7--2--7--2--7--2--7--2-| 
E|-5--0--5--0--5--0--5--0--5--0--5--0-| 

ĂŽnscrie-te la newsletter


Join the ranks ! LIKE us on Facebook