Stranger Stranger Intro Tab - Bad Company




Intro
e----------------------------------------------------------------|
B----------------------------------------------------------------|
G----------------------------------------------------------------|
D-------9-9-----------5-5-----------2-2-----------7-7------------|
A-------7-7-----------3-3-----------0-0-----------5-5------------|
E-0x-0x------0x-0x-0x------0x-0x-0x------0x-0x-0x------0x-0x-0x--|

e----------------------------------------------------------------|
B----------------------------------------------------------------|
G----------------------------------------------------------------|
D-9-9-----------5-5-----------7-----------------------9-9--------|
A-7-7-----------3-3-----------5-----------------------7-7--------|
E------0x-0x-0x------0x-0x-0x----------------0x-0x-0x------0x-0x-|

e----------------------------------------------------------------|
B----------------------------------------------------------------|
G----------------------------------------------------------------|
D----5-5-----------2-2-----------7-7-----------5---------7-------|
A----3-3-----------0-0-----------5-5-----------3---------5-------|
E-0x------0x-0x-0x------0x-0x-0x------0x-0x-0x-------------------|

ĂŽnscrie-te la newsletter


Join the ranks ! LIKE us on Facebook