Kick In The Eye Bass Tab - Bauhaus






"Kick In The Eye" by Bauhaus (from the album "Mask")
====================================================

transcribed by Gilles Velay (gvelay@club-internet.fr)

Notation :
w : whole         t : 32th
h : half      R : rest
q : quarter      / : slide up
e : 8th    h,p : hammer on, pull off
s : 16th           : slide down


Riff 0
======
     h+q+e                     e           
G-||----------------------------------|
D-||-----drums------------------------|
A-||-R-----------------------/-9-----|
E-||----------------------------------|



Riff I
======
      e   s e   t t e   e   e   q         e   s e   t t e   e   e   q    
G-||--------------------5-------7-----||--------------------3-------5-----||
D-||*-----------5h6h7-------7--------*||*-----------3h4h5-------5--------*||
A-||*-5---5-5------------------------*||*-3---3-3------------------------*||
E-||----------------------------------||----------------------------------||

Riff Ib
=======
    e   s e   t t e   e   e   q        e   s e   t t e   e   e   e   e
G-|-------------------5-------7------|-------------------5-------7------|
D-|-----------5h6h7-------7----------|-----------5h6h7-------7----------|
A-|-5---5-5--------------------------|-5---5-5-----------------------5--|
E-|----------------------------------|----------------------------------|

    e   s e   t t e   e   e   q        e   s e   t t e   e   e   q    
G-|-------------------3-------5------|-------------------3-------5------|
D-|-----------3h4h5-------5----------|-----------3h4h5-------5----------|
A-|-3---3-3--------------------------|-3---3-3--------------------------|
E-|----------------------------------|----------------------------------|

Riff Ic
=======
    e   s e   t t e   e   e   q        e   s e   t t e   e   e   e   e
G-|-------------------5-------7------|-------------------7-------6------|
D-|-----------5h6h7-------7----------|-----------5h6h7------------------|
A-|-5---5-5--------------------------|-5---5-5---------------5-------5--|
E-|----------------------------------|----------------------------------|

    e   s e   t t e   e   e   q        e   s e   t t e   e   e   q    
G-|-------------------3-------5------|-------------------3--------------|
D-|-----------3h4h5-------5----------|-----------3h4h5-------5---3------|
A-|-3---3-3--------------------------|-3---3-3--------------------------|
E-|----------------------------------|----------------------------------|

Riff Id
=======
    e   s e   t t e   e   e   q        e   s e   t t e   e   e   q
G-|-------------------5-------7------|-------------------7-------7------|
D-|-----------5h6h7-------7----------|-----------5h6h7-------7----------|
A-|-5---5-5--------------------------|-5---5-5--------------------------|
E-|----------------------------------|----------------------------------|

    e   s e   t t e   e   e   q        e   s e   t t e   e   e   e   e
G-|-------------------3-------5------|-------------------3-------4------|
D-|-----------3h4h5-------5----------|-----------3h4h5-------5-------5--|
A-|-3---3-3--------------------------|-3---3-3--------------------------|
E-|----------------------------------|----------------------------------|

Riff Ie
=======
    e   s e   t t e   e   e   q        e   s e   t t e   e   e   e   e
G-|-------------------5-------7------|-------------------7-------6------|
D-|-----------5h6h7-------7----------|-----------5h6h7------------------|
A-|-5---5-5--------------------------|-5---5-5---------------5-------5--|
E-|----------------------------------|----------------------------------|

    e   s e   t t e   e   e   q        e   s e   t t e   e   e   e   e
G-|-------------------3-------5------|-------------------3-------4------|
D-|-----------3h4h5-------5----------|-----------3h4h5------------------|
A-|-3---3-3--------------------------|-3---3-3---------------2-------3--|
E-|----------------------------------|----------------------------------|

Riff If
=======
    e   s e   t t e   e   e   q        e   s e   t t e   e   e   e   e
G-|-------------------5-------7------|-------------------7-------6------|
D-|-----------5h6h7-------7----------|-----------5h6h7------------------|
A-|-5---5-5--------------------------|-5---5-5---------------5-------5--|
E-|----------------------------------|----------------------------------|

    e   s e   t t e   e   e   q        e   s e   t t e   e   e   s s e
G-|-------------------3-------5------|-------------------3---------------|
D-|-----------3h4h5-------5----------|-----------3h4h5-------5---3h5p3---|
A-|-3---3-3--------------------------|-3---3-3---------------------------|
E-|----------------------------------|-----------------------------------|


Riff II
=======
     e     e+s    s e   e   e   q       e     e+s    s e   e   t t e  e+s   
G-||----------------------------------|----------------------------------||
D-||--------------------5---6---7-----|--------------------5----------5--||
A-||-0-----0------5h7-----------------|-0-----0------5h7-------5h6h7-----||
E-||----------------------------------|----------------------------------||

Riff IIb
========
    e     e+s    s e   e   e   q       e     e+s    s e   e   t t e  e+s   
G-|----------------------------------|----------------------------------|
D-|--------------------5---6---7-----|--------------------7----------5--|
A-|-0-----0------5h7-----------------|-0-----0------5h7-------5h6h7-----|
E-|----------------------------------|----------------------------------|

Riff IIc
========
    e     e+s    s e   e   e   q       e     q+e          e    q+e  
G-|----------------------------------|----------------------------------|
D-|--------------------5---6---7-----|----------------------------------|
A-|-0-----0------5h7-----------------|-3-----3------------5----5--------|
E-|----------------------------------|----------------------------------|


Intro  :Riff 0   
Riff I  (x2)
Riff Ib 

1st Verse :Riff I  (x4)

Break : Riff Ic
Riff II (x2)
Riff IIb
Riff IIc
Riff I

2nd Verse :Riff I (x4)

Chorus :Riff I 
Riff Id

3rd Verse :Riff I 
Riff Id 
Riff Ie

Chorus :Riff Id
Riff If (x2)
Riff Id
Riff Ie (x2) + fade 




ĂŽnscrie-te la newsletter


Like us on Facebook