Silent Hedges Bass Tab - Bauhaus






Bauhaus -Silent Hedges-
Bassist: David J

 Orginally Tabbed by Stefano  dentiasciabola@hotmail.com

G|---------------|-------------|
D|--------9------|--------9----| X 8
A|-7/9-10---10-9-|-6/9-10---10-|
E|---------------|-------------|

G|------|---------------|
D|------|---------------| X 1
A|-5/18-|-5-------------|
E|------|---5-5-5-5-5-5-|

G|---------------|-------------|
D|--------9------|--------9----| X 2
A|-7/9-10---10-9-|-6/9-10---10-|
E|---------------|-------------|

G|---------------|-------|
D|--------9------|--9----| X 4
A|-7/9-10---10-9-|----10-|
E|---------------|-------|

G|---|---|---|---|----|---|----|---|---|
D|---|---|---|---|----|---|----|---|---| X 1
A|-7-|-8-|-7-|-8-|-10-|-8-|-10-|-8-|-7-|
E|---|---|---|---|----|---|----|---|---|

G|---------------|-------------|
D|--------9------|--------9----| X 6
A|-7/9-10---10-9-|-6/9-10---10-|
E|---------------|-------------|

G|---------------|-------|
D|--------9------|--9----| X 4
A|-7/9-10---10-9-|----10-|
E|---------------|-------|

G|---------------|-------------|
D|--------9------|--------9----| X 2
A|-7/9-10---10-9-|-6/9-10---10-|
E|---------------|-------------|



ĂŽnscrie-te la newsletter


Like us on Facebook