Who Killed Mr Moonlight Bass Tab - Bauhaus






Song: Who Killed Mr. Moonlight?
Artis: Bauhaus
Album: Burning From The Inside
Tabbed By: Sean Cahill
kungfusoda@gmail.com

(No Bass until 1:14)
G|----------|
D|----------|
A|----------| 4x
E|-6-6-6-6--|

(2:26)
G|----------|
D|----------|
A|----------| 4x
E|-5-5-5-5--|

(2:52)
G|----------------------------------|
D|----------------------------------|
A|-5-5-5-5-7-7-7-7-3-3-3-3----------|
E|-------------------------3-3-3-3--|
Repeat Until the end.

Notes:
The song is mostly piano, but a bass adaptation
fits nicely in some parts, the end mostly.






Like us on Facebook