Sloop John B Bass Tab - Beach Boys




Hi guys! This is my first tab and i'm proud of it...

it is pretty hard at the begining, so listen to the cd to get the rythm.
 
Comes in at the middle of first verse
 
Riff 1
G --------------------------------------------------------------------
D -----------------7--------------------------------------------------
A -----7-----7--9-----7--------5-4------7--------7--9--7-----4-5--4---
E --5-----7--------------------------------7--9-----------7-----------
 
Riff 2
G --------------------------------------------------------------
D --------------------------------------------------------------
A -----------------------------4--5--------5--4--2--------2--4--
E --5--0--3--5--7--5--0--3--5--------5--7-----------0--2--------

Riff 3
G ---------------------------------------------------------------
D -------------------------0--2----------------------------------
A --------------5--4--2------------2-----------------------------
E --5--0--3--5------------------------5--0--3--5--7--5--0--3--5-7
 
Riff 4
G ------------------------------
D ------------------------------
A ------------------------------
E --5--0--3--5--7--5--0--3--5--7


Order:
Riff 1    0:13-0:21  
Riff 2    0:22-0:29  
Riff 3    0:30-0:37  
Riff 4 x2 0:37-0:46  
Riff 2 x2 0:46-1:00
Riff 3    1:00-1:08
Riff 4 x2 1:08-1:17
Riff 2 x2 1:17-1:31
Riff 3    1:31-1:38
Riff 4 x2 1:38-1:47
Riff 2    1:47-1:54
Break     1:54-2:01
Riff 3    2:01-2:09

Then

Riff 5    2:09-2:16
G ----------------------------------
D ----------------------------------
A --7-7-------------7-7-------------
E -------7--5--0-2-------7--5--0-2--

Riff 1    2:16-2:24

Riff 6    2:24-2:32
G ----------------------------------
D ----------------------------------
A ----------55442222----------------
E --55555555---------5--------------

Break     2:32-2:36

End       2:36-2:57
G ---------------------------------------------------------------------------
D ---------------------------------------------------------------------------
A -------------------------------------------------7777777777777-------------
E --55555555555555555555555555555555555555555555555-------------5555555555555

ĂŽnscrie-te la newsletter


Join the ranks ! LIKE us on Facebook