3 Minute Rule Bass Tab - Beastie Boys






Band:Beastie Boys
Song:3 Minute Rule

Hey this is Matt Minto with a Beastie Boys Tab and yeah they alright.

G|---------------------------|
D|---------1-----------3--1--|
A|-3-3-1-3---3-1-3-----------|
E|-----------------11--------|

G|---------------------|
D|---------1-----------|
A|-3-3-1-3---3-1-3-----|
E|-----------------11--|

G|-----------------------------|
D|---------1-------------------|
A|-3-3-1-3---3-1-3--------1-2--|
E|-----------------11--33------|

Listen to the song for the rhythm.
The best bass line from the best Beastie Boys album!


Thanks,
       Matt Minto

ĂŽnscrie-te la newsletter


Like us on Facebook