You Gotta Fight For Your Right To Party Intro Tab - Beastie Boys






-------------------------------------------------------------------------------
     You gotta fight - Beastie Boys
-------------------------------------------------------------------------------
Tabbed by:Phillip
Email:Cheetaclawsfl@yahoo.com

Tuning:Standard

e|---------------------------------------------------------------------------|
B|---------------------------------------------------------------------------|
G|---------------------5-7-----5-7-------------------------------------------|
D|--7----------------7-5-7-7-7-5-7-------------------------------------------|
A|--7-(let-ring-out)-7-3-5-7-7-3-5-------------------------------------------|
E|--5----------------5-----5-5-----------------------------------------------|
verse
e|---------------------------------------------------------------------------|
B|---------------------------------------------------------------------------|
G|----------------------5-7------5-7-----------------------------------------|
D|-7-7-7-7-7-7-7-7-7--7-5-7-7-7--5-7-----------------------------------------|
A|-7-7-7-7-7-7-7-7-7--7-3-5-7-7--3-5-----------------------------------------|
E|-5-5-5-5-5-5-5-5-5--5-----5-5----------------------------------------------|
   x x x x x x x x x

I figured since no one else posted a tab for this I would.  Once I get the rest it will 
up there. Enjoy! :)


| /  slide up
|   slide down
| h  hammer-on
| p  pull-off
| ~  vibrato
| +  harmonic
| x  Mute note
===============================================================================

ĂŽnscrie-te la newsletter


Like us on Facebook