Beyond Adaptation Tab - BECOMING THE ARCHETYPE




Band: Becoming The Archetype
Song: Beyond Adaptation
Tabbed By: Jordan Palmer

this is like my second tabb. lol BTA is a great band and this song is the shizzay.

:Intro:

this goes really fast and i'm not sure if its 100% correct but its pretty close.

Guitar 1:
D|-------------------------------------------------|
A|-------------------------------------------------|
F|-------------------------------------------------| Repeat Whats in () x2
C|-7-(000-12-12-13-12-10-8--875-875-10-8-7-10-8-7)-|
G|-5-----------------------------------------------|
C|-------------------------------------------------|

While Guitar 1 Plays The Riff Above Guitar 2 Plays This
D|------------------------------|
A|------------------------------|
F|------------------------------|
C|-0-----0-1~--0-0-0-0----0--0~-|
G|-0-----0-1~--0-0-0-0----0--0~-|
C|-0-----0-1~--0-0-0-0----0--0~-|


Guitar 1:
D|------------------------------|
A|------------------------------|
F|------------------------------|
C|-0-----0-1~--0-0-0-0----0--5b-|
G|-0-----0-1~--0-0-0-0----0-----|
C|-0-----0-1~--0-0-0-0----0-----|

Guitar 2:
D|------------------------------|
A|------------------------------|
F|------------------------------|
C|-0-----0-1~--0-0-0-0----0--0--|
G|-0-----0-1~--0-0-0-0----0--0--|
C|-0-----0-1~--0-0-0-0----0--0--|

Guitar 1 & 2:
D|-------------------------------------------------|
A|-------------------------------------------------|
F|-------------------------------------------------| Repeat Whats in () x4
C|-7-(000-12-12-13-12-10-8--875-875-10-8-7-10-8-7)-|
G|-5-----------------------------------------------|
C|-------------------------------------------------|

:Verse:

Guitar 1 & 2:
D|--------------------------|
A|--------------------------|
F|--------------------------|
C|-0-----2-----3------3/53-| x4
G|-0-----2-----3------3/53-|
C|-0-000-2-000-3-0000-3/53-|


Guitar 1 & 2:
D|---------------------------|
A|---------------------------|
F|---------------------------|
C|-0-----5-----7------8/108-| x4
G|-0-----5-----7------8/108-|
C|-0-000-5-000-7-0000-8/108-|

Guitar 1 & 2:
D|-------------------------------------------------|
A|-------------------------------------------------|
F|-------------------------------------------------| x4
C|----000-12-12-13-12-10-8--875-875-10-8-7-10-8-7--|
G|-------------------------------------------------|
C|-------------------------------------------------|

Guitar 1 & 2:
D|--------------------------------|
A|--------------------------------|
F|--------------------------------|
C|-0-----0-1~--0-0-0-0----1--7

ĂŽnscrie-te la newsletter


Join the ranks ! LIKE us on Facebook