Epoch Of War (ver2) Tab - BECOMING THE ARCHETYPE




Band:Becoming the Archetype
song:Epoch of War

tuning:drop c

intro
d----------------------------------|------------------------------------------|
a----------------------------------|------------------------------------------|
f----------------------------------|---------------------------8-7-5----------|
c--5--7-8-5--7-8-8/10--8-7-8--74-4|--5--7-8-5--7-8-8/10--7-8--------8-7------|
g----------------------------------|------------------------------------------|
c----------------------------------|------------------------------------------|

2nd guitar comes in and plays an octave above

d-----------------------------------------|
a--8--10-11-8--10-11-11/13-11-10-11-107-7|
f-----------------------------------------|
c-----------------------------------------|
g-----------------------------------------|
c-----------------------------------------|

d--------------------------------11-10-8-------|
a--8--10-11-8--10-11-11/13-10-11---------11-10-|
f----------------------------------------------|
c----------------------------------------------|
g----------------------------------------------|
c----------------------------------------------|


c------------------------------------|--------------------------------|
g------------------------------------|--------------------------------|
c--0-0-0000-0-0-0000-0-3-0-0-3-0-3h4-|-0-0-0000-0-0-0000-0-3-0-0-4-3-0|
   . . .... . . .... .   . .   .       . . .... . . .... .   . .  
c-----------------------------------------------------|
g-----------------------------------------------------|
c-0000000000000000000333344440000000000000444433330000|
if that doesn't make since, just tremelo the riff right above it

c------------------------------------|--------------------------------|
g------------------------------------|--------------------------------|
c--0-0-0000-0-0-0000-0-3-0-0-3-0-3h4-|-0-0-0000-0-0-0000-0-3-0-0-4-3-0|
   . . .... . . .... .   . .   .       . . .... . . .... .   . .  


d------------------------------------|
a-------------6-8-6---8-10--11-10----|
f-7-8-10-8------------------------10-|
c------------------------------------|
g------------------------------------|
c------------------------------------|


d---------------------------|-----------------------------------|
a--8-6-8-----8-6-8-----6-8-6|--8-10-11-----8-10-11----8-11-10---|
f---------------------------|--------------------------------10-|
c--------0-0------0-0-------|----------0-0--------0-0-----------|
g--------0-0------0-0-------|----------0-0--------0-0-----------|
c--------0-0------0-0-------|----------0-0--------0-0-----------|
         . .      . .                  . .        . .

solo

obviously this is really hard to tab, so yeah, i don't have it.

outro riff

d----------6---------------10------|
a--8-6-8-10-10-8-6-8-6-8-10--10-8-6|
f----------------------------------|
c----------------------------------|
g----------------------------------|
c----------------------------------|





ĂŽnscrie-te la newsletter


Join the ranks ! LIKE us on Facebook