March Of The Dead Tab - BECOMING THE ARCHETYPE




March of the Dead
  by Becoming the Archetype

From their first album "Terminate Damnation"
Copyright  2005 Solid State Records

Tabbed by Tom Arthur

Drop C Tuning: C-G-C-F-A-D

Guitar 1Start at 0:48
D|----------------------------------------------------------------|
A|----------------------------------------------------------------|
F|----------------------------------------------------------------|
C|-----------------------------7--7-8------8-7--------7-----8-7---|
G|--8---8-10---10-7---7-8--10----------10-------7--8----10--------|
C|----------------------------------------------------------------|

D|----------------------------------------------------------------|
A|----------------------------------------------------------------|
F|------------7---------------------------------------------------|
C|--7-10---10-------8--7--8-7-------------------------------------|
G|---------------8--------------10-8-7---5~-----------------------|
C|----------------------------------------------------------------|

Guitar 2Start at 1:24
D|----------------------------------------------------------------|
A|----------------------------------------------------------------|
F|----------------------------------------------------------------|
C|------------------------------5--3-2---0~-----------------------|
G|------------------------------5--3-2---0~-----------------------|
C|------------------------------5--3-2---0~-----------------------|

ĂŽnscrie-te la newsletter


Join the ranks ! LIKE us on Facebook