Stayin Alive Bass Tab - Bee Gees






Staying Alive
The Bee Gee's
Tabbed by Jesse
bleepo2@hotmail.com


easy!
Main Riff
g-----------------------------------------------
d-------6-------------------------------------6-
a-6--8-----8--6-------6---------6-------6--8----
e---------------6--8-------6--8----6------------

Chorus?
g-----------------------
d-----------------------
a-----------------------
e----6----6-----6-------






Like us on Facebook