Faithless Intro Tab - Before the Dawn






LINK TO SITE: www.beforethedawn.com

-----------------------------------------------------------
              FAITHLESS - Before The Dawn
-----------------------------------------------------------
Tabbed by: Teme
Intro


e|----------------|----------------|
B|----------------|----------------|
G|-7-7-7-5--5-5-5-|5-5-5-5-5-5-5---|
D|----------------|----------------|
A|----------------|----------------|
E|----------------|----------------|

----------------|----------------|
----------------|----------------|
8--7--8---------|----------------|
--------5-5-5-5-|5-5-5-8--6------|
----------------|----------------|
----------------|----------------|


This part x3
----------------|----------------|
----------------|----------------|
-5--5-5-5-5-5-5-|5-5-5-5-8--7--8-|
----------------|----------------|
----------------|----------------|
----------------|----------------|

------------------|
------------------|
------------------|
5-5-5-5-5-5-5-8--6|
------------------|
------------------|
                                          ~savolaeset tulloo ja valtoo muan






Like us on Facebook