Melodic Death Metal Tab - Before the Dawn




Artist: Before The Dawn
Album: Soundscape of Silence
Song: Dying Sun

Hi! this is my first tab, hope you like it :)


Intro

d|--------------------------------------------------|
A|--------------------------------------------------|
F|-101010101010101010101010101010109999999999999999-|
C|--------------------------------------------------|
G|--------------------------------------------------|
D|--------------------------------------------------|


d|------------------------------------------------------------------|
A|------------------------------------------------------------------|
F|-1010101010101010101010101010101012121212121212121212121212121212-|
C|------------------------------------------------------------------|
G|------------------------------------------------------------------|
D|------------------------------------------------------------------|


d|----------------------------------|
A|----------------------------------|
F|-12121212121212121717171717171717-|  x2
C|----------------------------------|
G|----------------------------------|
D|----------------------------------|


d|-----------------------------------------------------------------|
A|-----------------------------------------------------------------|
F|----------12-12-12-14-14-14--------171717------------------------|
C|-12~121212------------------15--15-------15-15-15-14-14-14-------|
G|------------------------------15---------------------------15-15-|
D|-----------------------------------------------------------------|


d|--------------------------------------------------------------|
A|--------------------------------------------------------------|
F|----------12-12-12-14-14-14--------171717---------------------|
C|-12~121212------------------15--15-------15-15-15/17-17-14-14-|
G|------------------------------15------------------------------|
D|--------------------------------------------------------------|


d|-----------------------------------------------------------------|
A|-----------------------------------------------------------------|
F|----------12-12-12-14-14-14--------171717------------------------|
C|-12~121212------------------15--15-------15-15-15-14-14-14-------|
G|------------------------------15---------------------------15-15-|
D|-----------------------------------------------------------------|


d|------------------------------------------------------------------|
A|------------------------------------------------------------------|
F|----------12-12-12-14-14-14--------171717-------------------------|
C|-12~121212------------------15--15-------15-15-15/17-17-14-14-12~-|    
G|------------------------------15----------------------------------|
D|------------------------------------------------------------------|

ĂŽnscrie-te la newsletter


Join the ranks ! LIKE us on Facebook