Alphabet Soup Acoustic Tab - Bell X1




Song: Alphabet Soup (Acoustic)
Artist: BellX1
Album:Music In Mouth
TabbeR: Trent Steel


r = ring
~ = vibrate
b = bend
/ = slide
pm= palm mute



Intro:

 "I Should Have Known
 By The Arc Of The Empty Wine Glass"
e|-------------------------------------------------------|R
B|--2-2-2-2-2-2-2-2-2-2-2-2-2-2-2-2-2-2-2-2-2-2-2-2------|E 
G|--2-2-2-2-2-2-2-2-2-2-2-2-2-2-2-2-2-2-2-2-2-2-2-2------|P 
D|--0-0-0-0-0-0-0-0-0-0-0-2-2-0-2-2-2-0-2-2-0-2-2-2------|E
A|-------------------------------------------------------|A
E|-------------------------------------------------------|T




Break 1:
  "But Your Not More Gone
    Not More Gone, No Your Not More Gone"
e|-------------------------------------------------------|
B|-------------------------------------------------------| 
G|-4-4-4-4-4-4-6-6-6-6-6-4-4-4-4-4-4-6-6-6-6-6-6--X1-----|
D|-4-4-4-4-4-4-6-6-6-6-6-4-4-4-4-4-4-6-6-6-6-6-6---------|
A|-2-2-2-2-2-2-4-4-4-4-4-2-2-2-2-2-2-4-4-4-4-4-4---------|
E|-------------------------------------------------------|


Intro:
"Well Your Not More Gone
 Then Again Neither Was She
 The Only One Talkin' About 
 Is My Alphabet Soup"
e|-------------------------------------------------------|R 
B|--2-2-2-2-2-2-2-2-2-2-2-2-2-2-2-2-2-2-2-2-2-2-2-2------|E 
G|--2-2-2-2-2-2-2-2-2-2-2-2-2-2-2-2-2-2-2-2-2-2-2-2------|P 
D|--0-0-0-0-0-0-0-0-0-0-0-2-2-0-2-2-2-0-2-2-0-2-2-2------|E
A|-------------------------------------------------------|A
E|-------------------------------------------------------|T


Break 2:

 "I'd Say It'd Like Some Children
 But It Couldn't Eat A Hole One"
e|-------------------------------------------------------|
B|-------------------------------------------------------|
G|--------------------------------------------------X1---|
D|-4-4-4-4-4-4-4-4-4-4-4-4-2-2-2-2-2-2-2-2-2-2-----------|
A|-4-4-4-4-4-4-4-4-4-4-4-4-2-2-2-2-2-2-2-2-2-2-----------|
E|-2-2-2-2-2-2-2-2-2-2-2-2-0-0-0-0-0-0-0-0-0-0-----------|




Intro:

"The Only One Talkin' About 
 Is My Alphabet Soup"
e|-------------------------------------------------------|R 
B|--2-2-2-2-2-2-2-2-2-2-2-2-2-2-2-2-2-2-2-2-2-2-2-2------|E 
G|--2-2-2-2-2-2-2-2-2-2-2-2-2-2-2-2-2-2-2-2-2-2-2-2------|P 
D|--0-0-0-0-0-0-0-0-0-0-0-2-2-0-2-2-2-0-2-2-0-2-2-2------|E
A|-------------------------------------------------------|A
E|-------------------------------------------------------|T



Chorus:

  "And He's In a Loop"
e|-------------------------------------------------------| 
B|-------------------------------------------------------|
G|---7-7-6-6---------------------------------------------|  
D|-----------8-8-9-8---8-8-9-8---8-8-9-8-----------X2----|
A|-------------------------------------------------------|
E|-------------------------------------------------------|

e|-------------------------------------------------------|
B|-------------------------------------------------------| 
G|-7-7-7-7-7-7-7-2-2-2-2-2-2-2----------------------X2---|
D|-7-7-7-7-7-7-7-2-2-2-2-2-2-2---------------------------|
A|-5-5-5-5-5-5-5-0-0-0-0-0-0-0---------------------------|
E|-------------------------------------------------------|



Intro:

 "I Should Have Known
 But I only Caught A Glimps"
e|-------------------------------------------------------|R
B|--2-2-2-2-2-2-2-2-2-2-2-2-2-2-2-2-2-2-2-2-2-2-2-2------|E 
G|--2-2-2-2-2-2-2-2-2-2-2-2-2-2-2-2-2-2-2-2-2-2-2-2------|P 
D|--0-0-0-0-0-0-0-0-0-0-0-2-2-0-2-2-2-0-2-2-0-2-2-2------|E
A|-------------------------------------------------------|A
E|-------------------------------------------------------|T




Break 1:
  "But Your Not More Gone
    Not More Gone, No Your Not More Gone"
e|-------------------------------------------------------|
B|-------------------------------------------------------| 
G|-4-4-4-4-4-4-6-6-6-6-6-4-4-4-4-4-4-6-6-6-6-6-6--X1-----|
D|-4-4-4-4-4-4-6-6-6-6-6-4-4-4-4-4-4-6-6-6-6-6-6---------|
A|-2-2-2-2-2-2-4-4-4-4-4-2-2-2-2-2-2-4-4-4-4-4-4---------|
E|-------------------------------------------------------|



Intro:
"Well Your Not More Gone
 Then Again Neither Was She
 The Only One Talkin' About 
 Is My Alphabet Soup"
e|-------------------------------------------------------|R 
B|--2-2-2-2-2-2-2-2-2-2-2-2-2-2-2-2-2-2-2-2-2-2-2-2------|E 
G|--2-2-2-2-2-2-2-2-2-2-2-2-2-2-2-2-2-2-2-2-2-2-2-2------|P 
D|--0-0-0-0-0-0-0-0-0-0-0-2-2-0-2-2-2-0-2-2-0-2-2-2------|E
A|-------------------------------------------------------|A
E|-------------------------------------------------------|T



Break 2:

 "I'd Say It'd Like Some Children
 But It Couldn't Eat A Hole One"
e|-------------------------------------------------------|
B|-------------------------------------------------------|
G|--------------------------------------------------X1---|
D|-4-4-4-4-4-4-4-4-4-4-4-4-2-2-2-2-2-2-2-2-2-2-----------|
A|-4-4-4-4-4-4-4-4-4-4-4-4-2-2-2-2-2-2-2-2-2-2-----------|
E|-2-2-2-2-2-2-2-2-2-2-2-2-0-0-0-0-0-0-0-0-0-0-----------|


Intro:

"The Only One Talkin' About 
 Is My Alphabet Soup"
e|-------------------------------------------------------|R 
B|--2-2-2-2-2-2-2-2-2-2-2-2-2-2-2-2-2-2-2-2-2-2-2-2------|E 
G|--2-2-2-2-2-2-2-2-2-2-2-2-2-2-2-2-2-2-2-2-2-2-2-2------|P 
D|--0-0-0-0-0-0-0-0-0-0-0-2-2-0-2-2-2-0-2-2-0-2-2-2------|E
A|-------------------------------------------------------|A
E|-------------------------------------------------------|T



Chorus:

  "And He's In a Loop"
e|-------------------------------------------------------| 
B|-------------------------------------------------------|
G|---7-7-6-6---------------------------------------------|  
D|-----------8-8-9-8---8-8-9-8---8-8-9-8-----------X1----|
A|-------------------------------------------------------|
E|-------------------------------------------------------|

e|-------------------------------------------------------|
B|-------------------------------------------------------|
G|-7-7-7-7-7-7-7-2-2-2-2-2-2-2----------------------X5---|
D|-7-7-7-7-7-7-7-2-2-2-2-2-2-2---------------------------|
A|-5-5-5-5-5-5-5-0-0-0-0-0-0-0---------------------------|
E|-------------------------------------------------------|




Outro:


 "Whats That He Said, He Said
  Whats That Your Sayin To Me
e|-------------------------------------------------------|
B|-------------------------------------------------------| 
G|--------------------------------------------------X5---|
D|-8-8-8-8-8-8-8-8-8-8-8-8-5-5-5-5-5-5-5-----------------|
A|-8-8-8-8-8-8-8-8-8-8-8-8-5-5-5-5-5-5-5-----------------|
E|-6-6-6-6-6-6-6-5-5-5-5-5-3-3-3-3-3-3-3-----------------|


e|-------------------------------------------------------|
B|-------------------------------------------------------| 
G|-------------------------4-4-4-4-4-4-7-7-7-7-7-7-7-----|
D|-8-8-8-8-8-8-8-8-8-8-8-8-4-4-4-4-4-4-7-7-7-7-7-7-7-----|
A|-8-8-8-8-8-8-8-8-8-8-8-8-2-2-2-2-2-2-5-5-5-5-5-5-5-----|
E|-6-6-6-6-6-6-6-5-5-5-5-5-------------------------------|


  "Its Gonna Be Ok
   Its Gonna Be OK"
e|-------------------------------------------------------| 
B|-------------------------------------------------------|
G|---7-7-6-6---------------------------------------------|  
D|-----------8-8-9-8---8-8-9-8---8-8-9-8-----------X4----|
A|-------------------------------------------------------|
E|-------------------------------------------------------|



Ok this is a slow live version of alphabet soup its for a single guitar but two
would be good. If you don't get the intro just play the banjo solo alot.
Anyway listen to the song for timing.

ĂŽnscrie-te la newsletter


Join the ranks ! LIKE us on Facebook