Bad Skin Day Tab - Bell X1




---------------------------------------------------------------------
     BAD SKIN DAY  BellX1
---------------------------------------------------------------------

Tabbed by: kazkiely
Email: karen-kiely@hotmail.com

Brilliant song! I tried my best to tab out the acoustic of this, its pretty much 
(at least I think so!). Its pretty easy once you listen to the song with it. Enjoy! XD

Tuning: Standard


INTRO/VERSE (this is played all throughout the intro and verse)
   G C
e|------3---2--------3------2--------------3---2-------3-----2---------------|
B|------3-----3---3----3------3---3--------3-----3---3---3-----3---3---------|
G|----0---0-----0--------0------0---x2---0----0-----0-------0-----0--x2-----|
D|---------------------------------------------------------------------------|
A|--------------------------------------3------------------------------------|
E|--3------------------------------------------------------------------------|


CHORUS And youre far from me
   G C
e|------3---2--------3------2--------------3---2-------3-----2---------------|
B|------3-----3---3----3------3---3--------3-----3---3---3-----3---3---------|
G|----0---0-----0--------0------0--------0----0-----0-------0-----0--x2-----|
D|---------------------------------------------------------------------------|
A|--------------------------------------3------------------------------------|
E|--3------------------------------------------------------------------------|

   D
e|------3---2-------3-----2-----------|
B|------3-----3---3---3-----3---------|
G|----2---2-----2-------2-----2---2---|
D|--0---------------------------0-----|
A|------------------------------------|
E|------------------------------------|

Verse
Chorus
Verse
Chorus
Verseto end
ĂŽnscrie-te la newsletter


Join the ranks ! LIKE us on Facebook