Stand By Me (ver3) Bass Tab - Ben E King






Stand By Me by Ben E. King
Drop D Tuning: DADG

First Time Only
-------------------------------------------------|
-------------------------------------------------|
-0-0------0-0--0---------------------------------|
------2-6--------6-4-4--2--4-4--4-2-0-0--0-4-2-2-|

----------------------------------------------------------|
----------------------------------------------------------|
-----0-0--0-0------0-0--0---------------------------------|
-2-6-----------2-6--------6-4-4--2--4-4--4-2-0-0--0-4-2-2-|

The song is really easy to play, and the only thing different thing in any part of the 
is the very first time the bass plays it does not play part of the standard riff in the song.

ĂŽnscrie-te la newsletter


Join the ranks ! LIKE us on Facebook