Stand By Me (ver3) Tab - Ben E King






|------------------------
|------------------------
|------------------------
|------------------------
|-0-4-5-5--0-4-5-5-------
|------------------------

|------------------------
|------------------------
|------------------------
|-0----------------------
|--4-2-2-0-2-2-----------
|------------------------

|---------------------------
|---------------------------
|---------------------------
|---------------------------
|-2-0--0-0-0-4-5-5--0-4-5-5-
|---3-3---------------------

This took me like 5 minutes to figure out and longer to tab it..
~+*Sheryl*+~

ĂŽnscrie-te la newsletter


Join the ranks ! LIKE us on Facebook