Stand By Me (ver5) Tab - Ben E King






Hi to you! This tab is from the song Stand By Me that everyone know but i modified the song
to make a duo! It song veeeeerryyyyy good! Here we go..


Guitar 1 (lead)

Tuning > Standard (E)

*Distorsion*

Intro/Verses
       Cm          Am         F         Gm
|------------------------------------------------|
|-------4----------------------------------------|
|-------5----------6----------2----------4-------|
|-------5----------7----------3----------5-------|
|-------3----------7----------3----------5-------|
|------------------5----------1----------3-------|

Pre-Solo

|---------------|
|---------------|
|---------------|
|---------------|
|---------------|
|---------------|

Solo

|-------------------------------------------------------------------|
|----13--14--14------13--14--14----14--13--11--11---------11--11----|
|--13--------------13-----------------------------------13----------|
|-------------------------------------------------------------------|
|-------------------------------------------------------------------|
|-------------------------------------------------------------------|

|-------------------------------------------------------------------|
|--11-----------------11-------------13--14~------------------------|
|----13--11--11----11----13--13----13-------------------------------|
|-------------------------------------------------------------------|
|-------------------------------------------------------------------|
|-------------------------------------------------------------------|

Verses

        Cm        Am         F        Gm
|-----------------------------------------------------------|
|-------4---------------------------------------------------|
|-------5----------6---------2--------4---------------------|
|-------5----------7---------3--------5---------------------|
|-------3----------7---------3--------5---------------------|
|------------------5---------1--------3---------------------|

Outro

      Cm
|-----------------|
|-------4~--------|
|-------5~--------|
|-------5~--------|
|-------3~--------|
|-----------------|


~ > let ring

Guitar 2 (bass)

Tuning > Standard

Intro/Verses

|------------------------------------------------------------------------|
|------------------------------------------------------------------------|
|------------------------------------------------------------------------|
|------------------------------------------------------------------------|
|------2-3-3------2-3-3----3-2-0-0------0-0-----------0---------0--------|
|----3-----------3-------------------------3--------3---1-1---1---3-3----|

Pre-Solo

|-------------------------------|
|-------------------------------|
|-------------------------------|
|-------------------------------|
|------2-3-3------2-3-3---------|
|----3-----------3--------------|

Solo

|------------------------------------------------------------------------|
|------------------------------------------------------------------------|
|------------------------------------------------------------------------|
|------------------------------------------------------------------------|
|------2-3-3------2-3-3----3-2-0-0------0-0----0------0---------0--------|
|----3-----------3-------------------------3--------3---1-1---1---3-3----|

Outro

|-----------------------------|
|-----------------------------|
|-----------------------------|
|-----------------------------|
|------2-3-3------2-3~--------|
|----3-----------3------------|


~ > let ring


I have my copyright on this tab!!!! so send me an email at burn_1n_hell@hotmail.com if 
want to use it. tks u!

4coustiks

ĂŽnscrie-te la newsletter


Join the ranks ! LIKE us on Facebook