Stand By Me Bass Tab - Ben E King






Artist: Ben E. King
Song: Stand By Me

G -----------------------------------------------------------------------
D -7---7-----6-7---7---7-6-4---4-----4---4---4-------------4----------6-7
A ---------7-----------------------4-----------7-5---5---5---7---7---7---
E -----------------------------------------------------------------------

G ---------6-6------------------------------------------6-6---------6-9-6-
D ---7---9-----9-7-7-6-4-4---6---4--------------9--9-9----------7-9-------
A -7-------------------------------7-5-5---5-7----------------7-----------
E ------------------------------------------------------------------------

G -14-16-18-16-14-14-13-11-11---13---11-9-7-7---7-9---16--16-16-18-18--
D ---------------------------------------------------------------------
A ---------------------------------------------------------------------
E ---------------------------------------------------------------------

G -16-14-13-11-9-7-6-9---
D ---------------------7-
A -----------------------
E -----------------------

The short first part is what is played throughout the entire song. The long
second part is just something opptional that you can play near the end if you
want. Enjoy.

tabbed by james                   "The lord is my shephard..."

ĂŽnscrie-te la newsletter


Like us on Facebook