Down On Whores Tab - Benediction






                          BENEDICTION-DOWN ON WHORES
                          From the Album THE DREAMS YOU DREAD
                          Copyright 1995 Relapse Records
                                                   
                          Version 1.0 - March 1999



Transcribed by: Vincent Levant
 email Vincent Levant at vlevant@nordnet.fr, for questions or corrections

Visit Malignant Tablature Dominion at 
      http://www.angelfire.com/ak2/MalignantTabs/index.html

Check Out DEATH WARP, With More Transcriptions On It:
               http://tiger.towson.edu/~dalvis1



/     slide up
     slide down
p     pull on
h     hammer on
~     vibrato
.     pm



Tuning: 1 whole step down


Intro :                    repeat 7x                   then slowly
|---------------------------------|------------------------------|
|---------2---------------0-------|---------2----------------0---|
|---4---4---4---4---3---3---3---3-|---4---4---4---4---3---3--3---|
|-4---4-------4---3---3-------3---|-4---4-------4---3---3----3---|
|---------------------------------|------------------------------|
|---------------------------------|------------------------------|

then distortion guitard at the 3 times
                          repeat 5x           then stop the last chord  
|---------------------------------|----------------------------------|
|---------------------------------|----------------------------------|
|---------------------------------|----------------------------------|
|-4---------------3---------------|-4---------------3----------------|
|-2---------------1-echoes-effect-|-2---------------1----------------|
|-2---------------1---------------|-2---------------1----------------|
                  ^----mute 1,2,4 

the drum start and... 

guitard 1  repeat 12x  guitard 2                                the last time of guitard 2
|-------------------|  |-----------------6---6---6-| let ring   |-------------------6------|
|-------------------|  |-------------------6---6---| the note ! |-----------------6---6----|
|-------------------|  |---------------------------|            |---------------------------|
|-------9---------8-|  |-------9-------------------|            |-------9-------------------|
|-------7---------6-|  |-------7-------------------|            |-------7-------------------|
|-0-0-0-0---0-0-0---|  |-0-0-0-0---0-0-0-----------|            |-0-0-0-0---0-0-0-----------|
 pm---+    pm---+       pm---+    pm---+

guitard 2 played at 1,2,3,4,6,8,10 times in the other time the guitar two played the same as 
guitar one

then the guitard 1 start with the next riff 
repeat 2x                                  ______________________1.__2.
|-----------------------------------------------------------------|---|
|-----------------------------------------------------------------|---| stop the 
|-----------------------------------------------------------------|---| chords 
|-----------4-------------------------------3---------------------|-3-|
|-5-4-2-----2---------------------54-2-----1---------------------|-1-|
|-3-2-0-0-0---0-0-0-0-0-0-0-0-0-0-32-0-0-0---0-0-0-0-0-0-0-0-0-0-|---|
       pm-+  pm-----------------+      pm-+  pm-----------------+

guitard 2
|-----------------------------------------------------------------|
|-----------------------------------------------------------------|
|-----------------------------------------------------------------|
|-----------4-------------------------------3---------------------|
|-5-4-2-----2-------------------------------1---------------------|
|-3-2-0-----------------------------------------------------------|

after the break the both guitar                          repeat 2x
|-----------------------------------------------------------------|
|-----------------------------------------------------------------| 
|-----------------------------------------------------------------|
|-----------4-------------------------------3---------------------|
|-5-4-2-----2---------------------5-4-2-----1---------------------|
|-3-2-0-0-0---0-0-0-0-0-0-0-0-0-0-3-2-0-0-0---0-0-0-0-0-0-0-0-0-0-|
       pm-+  pm-----------------+      pm-+  pm-----------------+

the lyrics start with
riff a              riff b               fill a        (not very sure !)
|-----------------| |------------------| |----------------------------------|
|-----------------| |------------------| |----------------------------------|
|-----------------| |------------------| |----------------------------------|
|-----------------| |--------------3-4-| |----------------------------------|
|-32----2----2-3-| |--32----2----1-2-| |----------------------------------|
|-1

ĂŽnscrie-te la newsletter


Join the ranks ! LIKE us on Facebook