Good Practice Makes Permanent Bass Tab - Biffy Clyro




Song: 
Artist: Biffy Clyro
Album: Questions And Answers (Single)

Drop D Tuning

G|------------------------------------------------------------------------|
D|------------------------------------------------------------------------|
A|--7-77-777/13-12-1212-1212/15-15----------------------------------------|
D|---------------------------------13-1313-1313/17-17-12-1212-1212/16-16--|  x 4

G|--------------------------------------------|
D|--------------------------------------------|
A|--------------------------------------------|
D|--2-2-222/8-7-7-777/10-1-1-111/5-0-0-000/4--|  x 4

G|------------------------------------------|
D|-----------------------------2------------|
A|-2-2-2-5-0-0-0-00000-2-2-2-5---0-0-00000--|
D|------------------------------------------|  x 2

G|---------------------------------|
D|---------------------------------|
A|---------------------------------|
D|--12~-12~-7~-10~-12~-12~-7~-10~--|

G|-------------------------------------|
D|-------------------------------------|
A|--10-10-12-12-10-10-12-12-8-8-10-10--|
D|-------------------------------------|

G|------------------------------------------------|
D|------------------------------------------------|
A|--0-0-0-0/6-0-0-0-0/6-10-10-1010101010-9-9-5-7--|
D|------------------------------------------------|  x 2

G|------------------------------------------|
D|-----------------------------2------------|
A|-2-2-2-5-0-0-0-00000-2-2-2-5---0-0-00000--|
D|------------------------------------------|  x 2

G|-------------------------------|
D|--------------12---------------|
A|--0h15-0h14-0----0h12-7h8p7p0--|
D|-------------------------------|  x 4

G|-------------------------------------------------|
D|-------------------------------------------------|
A|--000000-057-000000-057-00000000-057-555555-057--|
D|-------------------------------------------------|  x 2

G|--------------|
D|--------------|
A|--000000-057--|
D|--------------|  x 5

G|--------------|
D|---77777------|
A|--0------057--|
D|--------------|  x 3

G|------------------------------|
D|------------------------------|
A|--057-057-057-057-057-057-0~--|
D|------------------------------|
ĂŽnscrie-te la newsletter


Join the ranks ! LIKE us on Facebook